Oops, an error
Loading. Please wait.

Ides Of March Tab

version 2
version 2

Whole song

Interactive

6,345 views 9 this week
9 commentsread comments
1 2 3 4 5
x 5
add to favorites
launch autoscroll
font size
0
reset
how to read this tab
guitar tuner
Autoscroll
slow
fast
+/-
esc
set tempo
stop
Help us to improve Ultimate-Guitar.com Take our survey!
×
Difficulty
intermediate
hi its the unregistered silverstein tabber again. 
i think i got this one almost perfect but yuo guys 
should decide. my second tab be patient.

tuning: dropped d (DADGBe)

before intro and intro-guitar 1-gradually get louder 
(this is the only part im not sure about)
e|-------------------------------------------------------------------------|
B|-------------------------------------------------------------------------|
G|------11b-(x4)-----------------------------------------------------------|
D|----------------------11b9---------11b9------11b7or----11b7or---(x2)-----|
A|---------------------9------------9---------9---12----9---12-------------|
D|-----------------9-9-----------9----------0----------0-------------------|

intro-guitar 2-you can barely hear it but uts there. 
it needs synchronization play with the song
e|--------------(12)-------------------------------------------------------|
B|--------------(12)-------------------------------------------------------|
G|-11--11/13---------(x2)--------------------------------------------------|
D|-------------------------------------------------------------------------|
A|-------------------------------------------------------------------------|
D|-------------------------------------------------------------------------|

pre-corus-guitar 1-this was hard but i think i have it
e|-------------------------------------------------------------------------|
B|-------------------------------------------------------------------------|
G|-------7-----------6-----------7-----------7-----------6-----------6-----|
D|----9-9-9-------9-9-9-------9-9-9-------9-9-9-------9-9-9-------9-9-9----|
A|-9---9---9---9---9---9---9---9---9---9---9---9---9---9---9---9---9---9---|
D|-------------------------------------------------------------------------|

e|----------------------x--------------------------------------------------|
B|----------------------x--------------------------------------------------|
G|-------7--------------x-(x8)---------------------------------------------|
D|----9-9-9-------9-9---x--------------------------------------------------|
A|-9---9---9---9---9----x--------------------------------------------------|
D|----------------------x--------------------------------------------------|

pre-chorus-guitar 2
e|-------------------------------------------------------------------------|
B|-------------------------------------------------------------------------|
G|-------------------------------------------------------------------------|
D|-9------0------2------------9------0-----2----9-(x8)---------------------|
A|-9------0------2------------9------0-----2----9--------------------------|
D|-9------0------2------------9------0-----2----9--------------------------|
                                                .
chorus-guitar1
e|-------------------------------------------------------------------------|
B|-------------------------------------------------------------------------|
G|--9--x--11--x--7--x--9-9-11----------------------------------------------|
D|--x--x---x--x--x--x--x-x--x---(x2)---------------------------------------|
A|--7--x---9--x--5--x--7-7--9----------------------------------------------|
D|-------------------------------------------------------------------------|

chorus-guitar2
e|-------------------------------------------------------------------------|
B|-------------------------------------------------------------------------|
G|-------------------------------------------------------------------------|
D|--9-9-9-9-0-0-0-0-2-2-2-2-5-5-5-5--(x2)----------------------------------|
A|--9-9-9-9-0-0-0-0-2-2-2-2-5-5-5-5----------------------------------------|
D|--9-9-9-9-0-0-0-0-2-2-2-2-5-5-5-5----------------------------------------|

play the verse again. do not play the pre-chorus but play 
the last note. then play the chorus two more times.

bridge-guitar 1-it really isnt that hard. play fast
e|-------------------------------------------------------------------------|
B|-------------------------------------------------------------------------|
G|---------------------11---(x2)---11-------11--------------11-----x4------|
D|------12-9-9-12-9-12-----------9---12-9-9----12-9-12-9-12----------------|
A|-------------------------------------------------------------------------|
D|-\0----------------------------------------------------------------------|

bridge-guitar 2-scratch up neck. play with song
e|-------------------------------------------------------------------------|
B|-------------------------------------------------------------------------|
G|-------------------------------------------------------------------------|
D|-9--9-9-9----9--9-9-9------2-4---2-4---4-4-4-2-2-2------x4--exept-first--|
A|-9--9-9-9----9--9-9-9-----2-2---2-2----------------------------part------|
D|-9--9-9-9----9--9-9-9----------------------------------------------------|

bridge-guitar 3-yes shane busts out a guitar
no questions asked i am positive
e|-------------------------------------------------------------------------|
B|-------------------------------------------------------------------------|
G|-------------------------------------------------------------------------|
D|-9-9-9-9-9-9-0-0-0-0-0-0-2-2-2-2-2-2-2-2-2-2-2-2---x4--------------------|
A|-9-9-9-9-9-9-0-0-0-0-0-0-2-2-2-2-2-2-2-2-2-2-2-2-------------------------|
E|-9-9-9-9-9-9-0-0-0-0-0-0-2-2-2-2-2-2-2-2-2-2-2-2-------------------------|

then play pre-chorus(except guitar 3
is palm muting a 999 chord) and the 
chorus one mor time. then end with
the solo guitar one has at the bridge.
this is an awesome song like every 
other sing by silverstein.

| /  slide up
| \  slide down     XXX
| h  hammer-on
| p  pull-off 
| ~  vibrato
| +  harmonic
| x  Mute note
============================================================================
Suggest correction
comments
print report bad tab
9 comments total. Showing first comments.
0 reply
NirvanaFan101 31 Jul 03, 2006 08:59 PM

When you wrote "this is an awesome song like every
other sing by silverstein." you forgot capitals...good tab haha.

0 reply
fret13 1,031 Jul 05, 2006 09:20 AM

it works for me but me and you need capitolization lessons =p

0 reply
gtr-boy 278 Nov 18, 2006 08:21 PM

lol no one cares about the capitals =P this is a damn good tab
thank you

guest
You may want to rate the tab now too:
select rating
Wanna post a correction for this tab? Suggest correction