Oops, an error
Loading. Please wait.

If You Could See Into My Soul Tab

version 1
version 1

Intro

Whole song

Interactive

2,930 views 1 this week
3 commentsread comments
1 2 3 4 5
please rate
add to favorites
launch autoscroll
font size
0
reset
how to read this tab
guitar tuner
Autoscroll
slow
fast
+/-
esc
set tempo
stop
Help us to improve Ultimate-Guitar.com Take our survey!
×
Difficulty
novice
                            Lead guitar (Neil)
TTTTTTTTTTTTTTTTTTTTTTTTTTTTTTTTTTTTTTTTTTTTTTTTTTTTTTTTTTTTTTTTTTTTTTTTTTTT
e|--------------------------------------------------------------------------|
b|--------------------------------------------------------------------------|
g|--22--18--17--20--20--20--20-20-22-18-17-20-22-18-17----------------------|
d|--------------------------------------------------------------------------|
a|----------------------------9--9--9--9------------------------------------|
E|11--11--11--11--11--11--11--------------9--9--9--9--9---------------------|

TTTTTTTTTTTTTTTTTTTTTTTTTTTTTTTTTTTTTTTTTTTTTTTTTTTTTTTTTTTTTTTTTTTTTTTTTTTT
e|--------------------------------------------------------------------------|
b|--------------------------------------------------------------------------|
g|--22--18--17--20--20--20--20-20-22-18-17-20-22-18-17----------------------|
d|--------------------------------------------------------------------------|
a|----------------------------9--9--9--9------------------------------------|
E|11--11--11--11--11--11--11--------------9--9--9--9--9---------------------|

TTTTTTTTTTTTTTTTTTTTTTTTTTTTTTTTTTTTTTTTTTTTTTTTTTTTTTTTTTTTTTTTTTTTTTTTTTTT
e|--------------------------------------------------------------------------|
b|--------------------------------------------------------------------------|
g|--22--18--17--20--20--20--20-20-22-18-17-20-22-18-17----------------------|
d|--------------------------------------------------------------------------|
a|----------------------------9--9--9--9------------------------------------|
E|11--11--11--11--11--11--11--------------9--9--9--9--9---------------------|

TTTTTTTTTTTTTTTTTTTTTTTTTTTTTTTTTTTTTTTTTTTTTTTTTTTTTTTTTTTTTTTTTTTTTTTTTTTT
e|--------------------------------------------------------------------------|
b|--------------------------------------------------------------------------|
g|--22--18--17--20--20--20--20-20-22-18-17-20-22-18-17----------------------|
d|--------------------------------------------------------------------------|
a|----------------------------9--9--9--9------------------------------------|
E|11--11--11--11--11--11--11--------------9--9--9--9--9---------------------|
Suggest correction
Give kudos to tab author, rate the tab!
1 2 3 4 5
comments
print report bad tab
3 comments total.
-1 reply
3rdActguitarist 302 wrote on September 7 2007, 03:42 pm

Well, this is wrong, considering the fact that the song is tuned a half-step down

-1 reply
crizzleb 10 wrote on January 4 2008, 06:57 pm

completely wrong

-1 reply
sabby18 10 wrote on February 12 2008, 11:00 am

umm this tab sucks really really bad its an octave lower than 22.........
don't tab if you don't know how.

guest
You may want to rate the tab now too:
select rating
Wanna post a correction for this tab? Suggest correction