Oops, an error
Loading. Please wait.

If You Could See Into My Soul Tab

version 1
version 1

Whole song

Interactive

7,086 views 1 this week
11 commentsread comments
1 2 3 4 5
x 3
add to favorites
launch autoscroll
font size
0
reset
how to read this tab
guitar tuner
Autoscroll
slow
fast
+/-
esc
set tempo
stop
Help us to improve Ultimate-Guitar.com Take our survey!
×
Author
Difficulty
intermediate
-----------------------------------------------------------------
If You Could See Into My Soul - Silverstein
-----------------------------------------------------------------
Email: enjoi_globe_sk8er_guy@yahoo.com  
Tuning: EADGBe

UPDATE: I Found the exact tapping and i updated the chorus so that it sounds perfect

Intro Guitar 1 (Tapping) 4x
e|-----------------------------------------|---------------------|---------------------|
B|-----------------------------------------|---------------------|---------------------|
G|---20---22---18---17---20---20---20---20-|---20---22---18---17-|---20---22---18---17-|
D|-----------------------------------------|---------------------|---------------------|
A|-6----6----6----6----6----6----6----6----|-9----9----9----9----|-4----4----4----4----|
E|-----------------------------------------|---------------------|---------------------|

Intro Guitar 2 (After 2nd Time Above) 2x
e|-------------------------------------------------------------------------|
B|-------------------------------------------------------------------------|
G|-8-8-8-8-8-8-8-8-8-8-8-8-8-8-8-8-11-11-11-11-11-11-11-11-6-6-6-6-6-6-6-6-|
D|-x-x-x-x-x-x-x-x-x-x-x-x-x-x-x-x--x--x--x--x--x--x--x--x-x-x-x-x-x-x-x-x-|
A|-6-6-6-6-6-6-6-6-6-6-6-6-6-6-6-6--9--9--9--9--9--9--9--9-4-4-4-4-4-4-4-4-|
E|-------------------------------------------------------------------------|

DRUM RIFF

Verse Guitar 1 & 2 (Up and down picking) 4x
e|---------------------------------------------------------------------|
B|---------------------------------------------------------------------|
G|---------------------------------------------------------------------|
D|---------------------------------------------------------------------|
A|-6666666666666666-6666666666666666-9999999999999999-4444444444444444-|
E|---------------------------------------------------------------------|
PM ................ ................ ................ ................

Fill
e|----------|
B|----------|
G|-66666666-|
D|-66666666-|
A|-44444444-|
E|----------|

Chorus Guitar 1 Pt. 1 (Play Pt. 1, then Pt. 2, then Pt. 1, then Pt. 2)
e|-----------------------------------------------------|
B|-----------------------------------------------------|
G|-88888888-88888888-1111111111111111-1313131313131313-|
D|-88888888-88888888-1111111111111111-1313131313131313-|
A|-66666666-66666666--9-9-9-9-9-9-9-9-1111111111111111-|
E|-----------------------------------------------------|

Chorus Guitar 1 Pt. 2
e|---------------------------------------------|
B|---------------------------------------------|
G|-88888888-88888888-1111111111111111-66666666-|
D|-88888888-88888888-1111111111111111-66666666-|
A|-66666666-66666666--9-9-9-9-9-9-9-9-44444444-|
E|---------------------------------------------|

Chorus Guitar 2 4x
e|--------------------------------------------------|
B|--------------------------------------------------|
G|--------------------------------------------------|
D|--------------------------------------------------|
A|-44-66-44-66-44-66-44-66--66-99-66-99-66-99-66-99-|
E|--------------------------------------------------|

After Chorus
e|-------------------|
B|-------------------|
G|-66666666-66666666-|
D|-66666666-66666666-|
A|-44444444-44444444-|
E|-------------------|

Fill Guitar 1 (Tapping) 2x
e|-----------------------------------------|---------------------|---------------------|
B|-----------------------------------------|---------------------|---------------------|
G|---20---22---18---17---20---20---20---20-|---20---22---18---17-|---20---22---18---17-|
D|-----------------------------------------|---------------------|---------------------|
A|-6----6----6----6----6----6----6----6----|-9----9----9----9----|-4----4----4----4----|
E|-----------------------------------------|---------------------|---------------------|

Fill Guitar 2 2x
e|-------------------------------------------------------------------------|
B|-------------------------------------------------------------------------|
G|-8-8-8-8-8-8-8-8-8-8-8-8-8-8-8-8-11-11-11-11-11-11-11-11-6-6-6-6-6-6-6-6-|
D|-x-x-x-x-x-x-x-x-x-x-x-x-x-x-x-x--x--x--x--x--x--x--x--x-x-x-x-x-x-x-x-x-|
A|-6-6-6-6-6-6-6-6-6-6-6-6-6-6-6-6--9--9--9--9--9--9--9--9-4-4-4-4-4-4-4-4-|
E|-------------------------------------------------------------------------|

Verse Guitar 1 & 2 (Up and down picking) 4x
e|---------------------------------------------------------------------|
B|---------------------------------------------------------------------|
G|---------------------------------------------------------------------|
D|---------------------------------------------------------------------|
A|-6666666666666666-6666666666666666-9999999999999999-4444444444444444-|
E|---------------------------------------------------------------------|
PM ................ ................ ................ ................

Chorus Guitar 1 Pt. 1 (Play Pt. 1, then Pt. 2, then Pt. 1, then Pt. 2)
e|-----------------------------------------------------|
B|-----------------------------------------------------|
G|-88888888-88888888-1111111111111111-1313131313131313-|
D|-88888888-88888888-1111111111111111-1313131313131313-|
A|-66666666-66666666--9-9-9-9-9-9-9-9-1111111111111111-|
E|-----------------------------------------------------|

Chorus Guitar 1 Pt. 2
e|---------------------------------------------|
B|---------------------------------------------|
G|-88888888-88888888-1111111111111111-66666666-|
D|-88888888-88888888-1111111111111111-66666666-|
A|-66666666-66666666--9-9-9-9-9-9-9-9-44444444-|
E|---------------------------------------------|

Chorus Guitar 2 4x
e|--------------------------------------------------|
B|--------------------------------------------------|
G|--------------------------------------------------|
D|--------------------------------------------------|
A|-44-66-44-66-44-66-44-66--66-99-66-99-66-99-66-99-|
E|--------------------------------------------------|

After Chorus
e|-------------|
B|-------------|
G|-66666666-6/-|
D|-66666666-6/-|
A|-44444444-4/-|
E|-------------|

Bridge 2x
e|-------------------------------------------------------------------------|
B|-------------------------------------------------------------------------|
G|-xx-1111-10-111111-xx-1111-10-111111-xx-1313-11-131313-xx-1313-11-131313-|
D|-xx--x-x--x--x-x-x-xx--x-x--x--x-x-x-xx--x-x--x--x-x-x-xx--x-x--x--x-x-x-|
A|-xx--9-9--8--9-9-9-xx--9-9--8--9-9-9-xx-1111--9-111111-xx-1111--9-111111-|
E|-------------------------------------------------------------------------|

e|-------------------------------------------------------------|
B|-------------------------------------------------------------|
G|-xx-88-6-888-xx-88-6-888-xx-1111-10-111111-xx-1111-10-111111-|
D|-xx-88-6-888-xx-88-6-888-xx--x-x--x--x-x-x-xx--x-x--x--x-x-x-|
A|-xx-66-4-666-xx-66-4-666-xx--9-9--8--9-9-9-xx--9-9--8--9-9-9-|
E|-------------------------------------------------------------|

e|-----------------------------------------------------------------------------|
B|-----------------------------------------------------------------------------|
G|-xx-88-6-888-xx-88-6-888-xx-1111-10-111111-111111111111111111111111----------|
D|-xx-88-6-888-xx-88-6-888-xx--x-x--x--x-x-x--x-x-x-x-x-x-x-x-x-x-x-x----------|
A|-xx-66-4-666-xx-66-4-666-xx--9-9--8--9-9-9--9-9-9-9-9-9-9-9-9-9-9-9--4-4-4-4-|
E|-----------------------------------------------------------------------------|

Chorus Guitar 1 Pt. 1 (Play Pt. 1, then Pt. 2, then Pt. 1, then Pt. 2)
e|-----------------------------------------------------|
B|-----------------------------------------------------|
G|-88888888-88888888-1111111111111111-1313131313131313-|
D|-88888888-88888888-1111111111111111-1313131313131313-|
A|-66666666-66666666--9-9-9-9-9-9-9-9-1111111111111111-|
E|-----------------------------------------------------|

Chorus Guitar 1 Pt. 2
e|---------------------------------------------|
B|---------------------------------------------|
G|-88888888-88888888-1111111111111111-66666666-|
D|-88888888-88888888-1111111111111111-66666666-|
A|-66666666-66666666--9-9-9-9-9-9-9-9-44444444-|
E|---------------------------------------------|

Chorus Guitar 2 4x
e|--------------------------------------------------|
B|--------------------------------------------------|
G|--------------------------------------------------|
D|--------------------------------------------------|
A|-44-66-44-66-44-66-44-66--66-99-66-99-66-99-66-99-|
E|--------------------------------------------------|

After Chorus
e|-------------------|
B|-------------------|
G|-66666666-66666666-|
D|-66666666-66666666-|
A|-44444444-44444444-|
E|-------------------|

Outro Guitar 1 (Tapping) 4x
e|-----------------------------------------|---------------------|---------------------|
B|-----------------------------------------|---------------------|---------------------|
G|---20---22---18---17---20---20---20---20-|---20---22---18---17-|---20---22---18---17-|
D|-----------------------------------------|---------------------|---------------------|
A|-6----6----6----6----6----6----6----6----|-9----9----9----9----|-4----4----4----4----|
E|-----------------------------------------|---------------------|---------------------|

Outro Guitar 2 4x
e|-------------------------------------------------------------------------|
B|-------------------------------------------------------------------------|
G|-8-8-8-8-8-8-8-8-8-8-8-8-8-8-8-8-11-11-11-11-11-11-11-11-6-6-6-6-6-6-6-6-|
D|-x-x-x-x-x-x-x-x-x-x-x-x-x-x-x-x--x--x--x--x--x--x--x--x-x-x-x-x-x-x-x-x-|
A|-6-6-6-6-6-6-6-6-6-6-6-6-6-6-6-6--9--9--9--9--9--9--9--9-4-4-4-4-4-4-4-4-|
E|-------------------------------------------------------------------------|

End On
e|----|
B|----|
G|-8x-|
D|-8x-|
A|-6x-|
E|----|


| /  slide up
| \  slide down
| h  hammer-on
| p  pull-off
| ~  vibrato
| +  harmonic
| x  Mute note
Suggest correction
Give kudos to tab author, rate the tab!
1 2 3 4 5
comments
print report bad tab
11 comments total. Showing first comments.
0 reply
fret13 1,031 Jun 08, 2007 08:52 AM

YOU NEED TO TELL ME WHERE I CAN HEAR THIS SONG!!!! I ORDERED THE CD BUT I DIDNT GET THE VINYL YET

0 reply
Carlson2000 533 Jun 08, 2007 10:32 AM

good tab, but i think this should be the tapping riff;

--------------------------|--------------|--------------
--16-18-14-13-16-16-16-16-|--16-18-14-13-|--16-18-14-13-
--------------------------|--------------|--------------
--------------------------|--------------|--------------
-6--6--6--6--6--6--6--6---|-9--9--9--9---|-4--4--4--4---
--------------------------|--------------|--------------

0 reply
ian4sho 196 Jun 08, 2007 11:11 AM

thnx for the correction. and i heard this song on victoryrecords.com

guest
You may want to rate the tab now too:
select rating
Wanna post a correction for this tab? Suggest correction