Oops, an error
Loading. Please wait.

If You Could See Into My Soul Tab

version 2
version 2

Intro

Whole song

Interactive

2,277 views 3 this week
4 commentsread comments
1 2 3 4 5
worth learning
x 3
add to favorites
launch autoscroll
font size
0
reset
how to read this tab
guitar tuner
Tab Pro tools
  • play this tab
  • loop segment
  • change instrument
  • show fretboard
  • metronome
Autoscroll
slow
fast
+/-
esc
set tempo
stop
Contributor
Okay, this is my first tab, but I think it's pretty good.
I put this up because the other tab was lacking something.
Listen to the song, and you'll get how to play it.

Tuning:
open Eb
(Eb Ab Db Gb Bb eb)
--------------------------
INTRO
--------------------------
Guitar 1: (Tapping)
 eb|-------------------------------------------------|
 Bb|--19-15-14-17-17-17-17-17-19-15-14-19-15-14------|
 Gb|-------------------------------------------------|
  Db|------------------------------------------------|    X4
  Ab|-7--7--7--7--7--7--7--7--7--7--7--7--7--7-------|
 Eb|-------------------------------------------------|

Guitar 2: (Comes in after guitar 2 plays riff twice)
 eb|------------------|
 Bb|------------------|
 Gb|-9-----12----7----|
 Db|-x(x16)-x(x8)x(x8)  (x2)
 Ab|-7-----10----5----|
 Eb|------------------|

Guitar 2: (Fill)
 eb|------------|
 Bb|------------|
 Gb|-9-9-9999-9-|
 Db|-9-9-9999-9-|   (When I play it, I don't palm mute the
 Ab|-7-7-7777-7-|    last note, I just like the way it sounds
 Eb|------------|    for the verse to come in.)
[PM] * * **** *

------------------------
VERSE
------------------------

Guitar 1: (those are Tens)
 eb|-----------------------------------------------------|
 Bb|-----------------------------------------------------|
 Gb|-----------------------------------------------------|
 Db|-----------------------------------------------------|
 Ab|-77777101010107--7777777777p5--10101010101414141410--|
 Eb|-----------------------------------------------------|

 eb|-----------|
 Bb|-----------|
 Gb|-----------|
 Db|-----------|
 Ab|-5555599995   (x2 the whole thing)
 Eb|-----------

 eb|-----------------------------------------------|
 Bb|-----------------------------------------------|
 Gb|-----------------------------------------------|
 Db|-----------------------------------------------|
 Ab|-777777777p5-777777777p5-3333355553-5555577775-|
 Eb|-----------------------------------------------|

 eb|----------------------------------------------------|
 Bb|----------------------------------------------------|
 Gb|----------------------------------------------------|
 Db|----------------------------------------------------|
 Ab|-77777101010107--7777777777p5--10101010101414141410-|
 Eb|----------------------------------------------------|

 eb|-----------|
 Bb|-----------|
 Gb|-----------|
 Db|-----------|
 Ab|-5555599995
 Eb|-----------

Guitar 2:
 eb|-----------|
 Bb|-----------|
 Gb|-9999999999
 Db|-9999999999 (reapeat through the whole verse)
 Ab|-7777777777
 Eb|-----------

-----------------------
CHORUS
-----------------------

Guitar 1: (Fill before chorus)
 eb|-----------------|
 Bb|-----------------|
 Gb|-7-7-7-7-7-7-8-8-|
 Db|-7-7-7-7-7-7-8-8-|
 Ab|-5-5-5-5-5-5-6-6-|
 Eb|-----------------|

Guitar 2: (fill before chorus)
 eb|-----------------|
 Bb|-----------------|
 Gb|-7-7-7-7-7-7-7-7-|
 Db|-7-7-7-7-7-7-7-7-|
 Ab|-5-5-5-5-5-5-5-5-|
 Eb|-----------------|

Both Guitars:
 eb|---------------------------|
 Bb|---------------------------|
 Gb|-9-9----9-9-9------9-9-----|
 Db|-x-x----x-x-x------x-x-----|
 Ab|-7-7----7-7-7------7-7-----|
 Eb|----0000------0000-----0-0-|

 eb|-------------------|
 Bb|-------------------|
 Gb|-------------------|
 Db|-55555555-77777777-|
 Ab|-55555555-77777777-|
 Eb|-33333333-55555555-|

 eb|-------------------------------|
 Bb|-------------------------------|
 Gb|------9-9-9-----9-9-9---9-9----|
 Db|------x-x-x-----x-x-x---x-x----|
 Ab|------7-7-7-----7-7-7---7-7----|
 Eb|-0-0-0-----0-0-0-----0-0-------|

 eb|------------------|
 Bb|------------------|
 Gb|------------------|
 Db|-77777777-55555555
 Ab|-77777777-55555555
 Eb|-55555555-33333333

 REPEAT WHOLE THING TWICE
 then

 eb|---------|
 Bb|---------|
 Gb|---------|
 Db|-99999999
 Ab|-99999999
 Eb|-77777777

Then basically the whole song repeats
then we get to the bridge...

---------------------
BRIDGE
---------------------

Guitar 1:
 eb|------------------------------------|
 Bb|------------------------------------|
 Gb|------------------------------------|
 Db|----22-2-2-2-2-2-2--22-2-2-2-2-2-2--|
 Ab|----22-2-2-2-2-2-2--22-2-2-2-2-2-2--|
 Eb|-7/-00-0-0-0-0-0-0--00-0-0-0-0-0-0--|

 eb|-------------------------------|
 Bb|-------------------------------|
 Gb|-55-5-5-5-5-5-5----------------|
 Db|-55-5-5-5-5-5-5-55-5-5-5-5-5-5-|
 Ab|-33-3-3-3-3-3-3-55-5-5-5-5-5-5-|
 Eb|----------------33-3-3-3-3-3-3-|

(times 2)

 eb|-------------------------------|
 Bb|-------------------------------|
 Gb|22-2-2-2-2-2-2--22-2-2-2-2-2-2-|
 Db|22-2-2-2-2-2-2--22-2-2-2-2-2-2-|
 Ab|00-0-0-0-0-0-0--00-0-0-0-0-0-0-|
 Eb|-------------------------------|

 eb|-------------------------------|
 Bb|-------------------------------|
 Gb|55-5-5-5-5-5-5--55-5-5-5-5-5-5-|
 Db|55-5-5-5-5-5-5--55-5-5-5-5-5-5-|
 Ab|33-3-3-3-3-3-3--33-3-3-3-3-3-3-|
 Eb|-------------------------------|

(times 2)


Guitar 2:
 eb|------------------|
 Bb|------------------|
 Gb|-77-1212/1111\1212
 Db|-xx--x-x/-x-x\-x-x--|
 Ab|-99-1010/-9-9\1010--|  (x2)
 Eb|--------------------|

 eb|-------------------------------|
 Bb|-------------------------------|
 Gb|-------------------------------|
 Db|-xx-1010/99\1010---------------|
 Ab|-xx--x-x/xx\-x-x---------------|
 Eb|-xx--8-8/77\-8-8-xx-3322h3p2p0-|

 (all of above times 2)

 eb|-----------------|
 Bb|-----------------|
 Gb|-----------------|
 Db|-xx-1010/99\1010-|
 Ab|-xx--x-x/xx\-x-x-|
 Eb|-xx--8-8/77\-8-8-| (x2)

 eb|------------------|
 Bb|------------------|
 Gb|-77-1212/1111\1212
 Db|-xx--x-x/-x-x\-x-x-|
 Ab|-99-1010/-9-9\1010-|
 Eb|-------------------|

 eb|----------------------------------------------|       (all of this played twice,
 Bb|----------------------------------------------|         on the first time play this
 Gb|-1414-1212-1111/9     <-----------------------|  .
 Db|--x-x--x-x--x-x/x-----------------------------|                            .
 Ab|-1212-1010--9-9/7-----------------------------|                            .
 Eb|----------------------------------------------|                            .
                                                 .
                                                 .
                                 Second time head straight into
                                 the chorus at this part with
                                 the fill.

                                 Then, after you play the chorus
                                 you'll play the intro riff a few times
                                 then you'll play...
Guitar 1:
 eb|------------|
 Bb|------------|
 Gb|-9-9-9999-9-|
 Db|-x-x-xxxx-x
 Ab|-7-7-7777-7-|
 Eb|------------|
[pm]     ****

Guitar 2:
 eb|-----------|
 Bb|-----------|
 Gb|-----------|
 Db|-22-2222-2-|
 Ab|-22-2222-2-|
 Eb|-00-0000-0-|
[pm]    ****

and ba-de-ba-de-ba-de-dats all folks.

So, in a basic overview thats..

Intro
Verse
Chorus
Verse
Chorus
Bridge
Chorus
Intro

Have fun.

Tabbed by MyChem7
comments
We did not receive enough feedback on this tab! Please rate:
print report bad tab
1 2 3 4 5
4 comments total. Showing first comments.
0 reply
Guitar4life1210 wrote on July 3 2007, 12:51 pm

Hey its better than the first one but the intro is still off.
19-15-14-17-17-17-17-17-19-15-14-19-15-14 should be
19-15-14-17-17-17-17-17-19-15-14-17-19-15-14-17 with the 2 sevens below added obviously. Thats it =)

0 reply
ian4sho wrote on July 4 2007, 12:32 am

This song isn't in open i don't think. i watched em play it live and it's either in drop d, half step down, or full step down.

0 reply
MyChem7 wrote on July 4 2007, 09:40 pm

well the tuning works, and I think playing in drop D is sad because it takes less skill. I still do it though haha.
And about the intro, I had it that way when I originally wrote it but when I sent it in a few things were changed.

I want to post or [tab]
guest
You may want to rate the tab now too:
select rating
Please do not post tabs as comments. Select "correction" instead!