Oops, an error
Loading. Please wait.

If You Could See Into My Soul Tab

version 3
version 3

Whole song

Interactive

14,497 views 1 this week
22 commentsread comments
1 2 3 4 5
accurate
x 8
add to favorites
launch autoscroll
font size
0
reset
how to read this tab
guitar tuner
Autoscroll
slow
fast
+/-
esc
set tempo
stop
Help us to improve Ultimate-Guitar.com Take our survey!
×
Author
Difficulty
Tuning
intermediate
D A D G B E
If you could see into my soul - silverstein
from the album "arrivals and departures"

Tabbed by: Byron Andrada
Email: spank_ie05@yahoo.com

This is a catchy song..please listen
to the song while following the tab...

hope you like it... BASELINE DRIVE RULES!!! CHEERS!!!

Tuning: Drop D

Intro:
E|-------------------------------------------------------------|
B|---16-18-14-13-16-16-16-16----16-18-14-13-----16-18-14-13----|
G|-------------------------------------------------------------|
D|-------------------------------------------------------------|
A|--6--6--6--6--6--6--6--6-----9--9--9--9------4--4--4--4------|2x
D|-------------------------------------------------------------|

guitar 1  one, two, three, four...
E|-------------------------------------------------------------|
B|---16-18-14-13-16-16-16-16----16-18-14-13-----16-18-14-13----|
G|-------------------------------------------------------------|
D|-------------------------------------------------------------|
A|--6--6--6--6--6--6--6--6-----9--9--9--9------4--4--4--4------|2x
D|-------------------------------------------------------------|
guitar 2
E|---------------------------------------------------------------------------|
B|---------------------------------------------------------------------------|
G|--8-8-8-8-8-8-8-8-8-8-8-8-8-8-8-8-11-11-11-11-11-11-11-11-6-6-6-6-6-6-6-6--|
D|--x-x-x-x-x-x-x-x-x-x-x-x-x-x-x-x--x--x--x--x--x--x--x--x-x-x-x-x-x-x-x-x--|
A|--6-6-6-6-6-6-6-6-6-6-6-6-6-6-6-6--9--9--9--9--9--9--9--9-4-4-4-4-4-4-4-4--|2x
D|---------------------------------------------------------------------------|

verse 1 and 2:
E|---------------------------------------------------------------------|
B|---------------------------------------------------------------------|
G|---------------------------------------------------------------------|
D|---------------------------------------------------------------------|
A|--6666666666666666666666666666-9999999999999999999-4444444444444444--|4x
D|---------------------------------------------------------------------|
    pm  .............................................................

E|----------|
B|----------|
G|-66666677-|
D|-xxxxxxxx-|
A|-44444455-|
D|----------|

Chorus:

E|----------------------------------------------------------------------|
B|----------------------------------------------------------------------|
G|--88xxxx888xxx888-------------------xxx888xxx888x8--------------------|
D|--xxxxxxxxxxxxxxx-44444444-66666666-xxxxxxxxxxxxxx-66666666-44444444--|2x
A|--666666666666666-44444444-66666666-66666666666666-66666666-44444444--|
D|------------------44444444-66666666----------------66666666-44444444--|

E|------------------|
B|------------------|
G|------------------|
D|--8888888888888---|
A|--8888888888888---|
D|--8888888888888---|

fill:
guitar 1
E|-------------------------------------------------------------|
B|---16-18-14-13-16-16-16-16----16-18-14-13-----16-18-14-13----|
G|-------------------------------------------------------------|
D|-------------------------------------------------------------|
A|--6--6--6--6--6--6--6--6-----9--9--9--9------4--4--4--4------|2x
D|-------------------------------------------------------------|
guitar 2
E|---------------------------------------------------------------------------|
B|---------------------------------------------------------------------------|
G|--8-8-8-8-8-8-8-8-8-8-8-8-8-8-8-8-11-11-11-11-11-11-11-11-6-6-6-6-6-6-6-6--|
D|--x-x-x-x-x-x-x-x-x-x-x-x-x-x-x-x--x--x--x--x--x--x--x--x-x-x-x-x-x-x-x-x--|
A|--6-6-6-6-6-6-6-6-6-6-6-6-6-6-6-6--9--9--9--9--9--9--9--9-4-4-4-4-4-4-4-4--|
D|---------------------------------------------------------------------------|

(repeat verse)
(repeat chorus)

Bridge:

E|---------------------------------------------------------|
B|---------------------------------------------------------|
G|--111110101111--111110101111--111110101111---------------|
D|--x-x-x-x-x-x---x-x-x-x-x-x---9-9-9-9-9-9---4444-3-1-----|
A|--9-9-8-8-9-9---9-9-8-8-9-9---9-9-9-9-9-9---4444-3-1-----|2x
D|------------------------------9-9-9-9-9-9---4444-3-1-----|

E|----------------------------------------|
B|----------------------------------------|
G|----------------111110101111------------|
D|--666666-666666-9-9-9-9-9-9---66666-3---|
A|--666666-666666-9-9-9-9-9-9---44455-----|
D|--666666-666666-9-9-9-9-9-9-------------|

E|-------------------------------------------|
B|-------------------------------------------|
G|-----------------4444444-6666666666-7------|
D|--666666-666666--4444444-6666666666-7------|
A|--666666-666666--2222222-4444444444-5------|
D|--666666-666666----------------------------|

(repeat chorus)

outro:

guitar 1
E|-------------------------------------------------------------|
B|---16-18-14-13-16-16-16-16----16-18-14-13-----16-18-14-13----|
G|-------------------------------------------------------------|
D|-------------------------------------------------------------|
A|--6--6--6--6--6--6--6--6-----9--9--9--9------4--4--4--4------|4x
D|-------------------------------------------------------------|
guitar 2
E|---------------------------------------------------------------------------|
B|---------------------------------------------------------------------------|
G|--8-8-8-8-8-8-8-8-8-8-8-8-8-8-8-8-11-11-11-11-11-11-11-11-6-6-6-6-6-6-6-6--|
D|--x-x-x-x-x-x-x-x-x-x-x-x-x-x-x-x--x--x--x--x--x--x--x--x-x-x-x-x-x-x-x-x--|
A|--6-6-6-6-6-6-6-6-6-6-6-6-6-6-6-6--9--9--9--9--9--9--9--9-4-4-4-4-4-4-4-4--|4x
D|---------------------------------------------------------------------------|


E|----|
B|----|
G|-8x-|
D|-8x-|
A|-6x-|
D|----|

legend: x = mute


If you have some suggestions or comments,feel free to PM or email me at spank_ie05@yahoo.com   
                                                           /bon
Suggest correction
comments
print report bad tab
22 comments total. Showing first comments.
+1 reply
nate31985 30 wrote on July 25 2007, 08:26 pm

yea i think the chours goes like this
not exact ryhtm
-
-44-----4
-xx-----x
-11-111-1-1
----111---1
----111---1-

+1 reply
prepekiddo1010 31 wrote on August 15 2007, 03:37 pm

SOUNDS JUST LIKE IT!!! = D

+1 reply
3rdActguitarist 302 wrote on September 11 2007, 03:48 pm

Tunings wrong. This album is a half step down (Eb/D#)

guest
You may want to rate the tab now too:
select rating
Please do not post tabs as comments. Select "correction" instead!