Oops, an error
Loading. Please wait.

If You Could See Into My Soul Tab

version 4
version 4

Whole song

Interactive

2,255 views 1 this week
no commentswrite comment
1 2 3 4 5
2 more votes to show rating
add to favorites
launch autoscroll
font size
0
reset
how to read this tab
guitar tuner
Autoscroll
slow
fast
+/-
esc
set tempo
stop
Help us to improve Ultimate-Guitar.com Take our survey!
×
Author
if you could see into my soul-silverstein
-tabbed by kenken-
this is my proudly first tab and i know that this is accurate...
(mas kuha 2 kysa s mga nauna..en em' xur of dat)
tuning-eb,Bb,Gb,Db,Ab,Eb

legends:
x-palm mute
/-slide up
\-slide down


intro (tapping)
eb|----------------------------------------------------------|
Bb|----------------------------------------------------------|
Gb|--21-17-16-19-19-19-19----21--17--16--19---21-17-16-19----|  2x
Db|----------------------------------------------------------|
Ab|-7--7--7--7--7--7--7----10--10--10--10----5--5--5--5------|
Eb|----------------------------------------------------------|

(repeat intro and do the git. 1)

 -git.1-
eb|----------------------------|
Bb|----------------------------|
Gb|-9-----12----7--------------| 2x
Db|-9(16x)12(8x)7(8x)----------|
Ab|-7-----10----5--------------|
Eb|----------------------------|

verses:

-git.3-

Gb|--------------------------------------------------|
Db|--------------------------------------------------| 2x
Ab|-77/10\7---77\5---1010/14\10----------------------|
Eb|-------------------------------1010/14\10---------|

Gb|--------------------------------------------------|
Db|--------------------------------------------------|
Ab|-77\5---77\5---33/7\3---55/9\5--------------------|
Eb|--------------------------------------------------|

Gb|--------------------------------------------------|
Db|--------------------------------------------------|
Ab|-77/10\7---77\5---1010/14\10----------------------|
Eb|-------------------------------1010/14\10--101010-|

-git.1-

eb|--------------------------------|
Bb|--------------------------------|
Gb|-9-----12-----7-----------------| 2x
Db|-9(16x)12(16x)7-----------------|
Ab|-7-----10-----5-----------------|
Eb|--------------------------------|
    x      x     x
eb|--------------------------------|
Bb|--------------------------------|
Gb|-9-----5----7-------------------|
Db|-9(16x)5(8x)7(8x)---------------|
Ab|-7-----3----5-------------------|
Eb|--------------------------------|
    x     x    x
eb|--------------------------------|
Bb|--------------------------------|
Gb|-9-----12----7------------------|
Db|-9(16x)12(8x)7(8x)--------------|
Ab|-7-----10----5------------------|
Eb|--------------------------------|
    x     x     x
-git. 2-

eb|------------------|
Bb|------------------|
Gb|-77777778---------|
Db|-77777778---------|
Ab|-55555556---------|
Eb|------------------|

chorus:

-git.2-

eb|----------------------------|
Bb|----------------------------|
Gb|-x999-x999-x9---------------|
Db|-x999-x999-x9---------------|
Ab|-x777-x777-x7---------------|
Eb|----------------------------|

-git.1-

eb|----------------------------|
Bb|----------------------------|
Gb|-9--------------------------|
Db|-9(16x)---------------------|
Ab|-7--------------------------|
Eb|----------------------------|

-both 1and 2-
eb|----------------------------|
Bb|----------------------------|
Gb|----------------------------|
Db|-5----7---------------------|
Ab|-5(8x)7(8x)-----------------|
Eb|-3----5---------------------|

-git.2-

eb|----------------------------|
Bb|----------------------------|
Gb|-x999-x999-x9---------------|
Db|-x999-x999-x9---------------|
Ab|-x777-x777-x7---------------|
Eb|----------------------------|

-git.1-

eb|----------------------------|
Bb|----------------------------|
Gb|-9--------------------------|
Db|-9(16x)---------------------|
Ab|-7--------------------------|
Eb|----------------------------|

-both 1and 2-
eb|----------------------------|
Bb|----------------------------|
Gb|----------------------------|
Db|-7----5---------------------|
Ab|-7(8x)5(8x)-----------------|
Eb|-5----3---------------------|

-2x-

then
eb|----------------------------|
Bb|----------------------------|
Gb|----------------------------|
Db|-99999999-------------------|
Ab|-99999999-------------------|
Eb|-77777777-------------------|

-repeat all from intro-chorus-

bridge:-both git.1 and git.2-

eb|----------------------------|
Bb|----------------------------|
Gb|-----------5----------------| 2x
Db|-7----7----5(4x)5-----------|
Ab|-7(4x)7(4x)3----5(4x)-------|
Eb|-5----5---------3-----------|

eb|----------------------------|
Bb|----------------------------|
Gb|-----------5----------------|
Db|-7----7----5(4x)5-----------|
Ab|-7(4x)7(4x)3----5(4x)-------|
Eb|-5----5---------3-----------|

eb|----------------------------|
Bb|----------------------------|
Gb|-----------5----7-----------|
Db|-7----7----5(4x)7(4x)-------|
Ab|-7(4x)7(4x)3----5-----------|
Eb|-5----5---------------------|
then -git.2 only-
eb|----------------------------|
Bb|----------------------------|
Gb|-7-/-9-\-7-/-11-------------|
Db|-7-/-9-\-7-/-11-------------|
Ab|-5-/-7-\-5-/-9--------------|
Eb|----------------------------|

eb|----------------------------|
Bb|----------------------------|
Gb|-----------5----------------|
Db|-7----7----5(4x)5-----------|
Ab|-7(4x)7(4x)3----5(4x)-------|
Eb|-5----5---------3-----------|

eb|----------------------------|
Bb|----------------------------|
Gb|-----------5----7-----------|
Db|-7----7----5(4x)7(4x)-------|
Ab|-7(4x)7(4x)3----5-----------|
Eb|-5----5---------------------|

-git. 2-

eb|------------------|
Bb|------------------|
Gb|-77777778---------|
Db|-77777778---------|
Ab|-55555556---------|
Eb|------------------|

-repeat chorus 2x-
-repeat intro 2x-


this is it!please rate wisely...
this is my 1st but challenging tab...
i hope you like it...
that's all and enjoy!
(binbti q nga pla mga k bndm8s q..,cla macOy,c pOpO,c tUtay en c ricardO)
Suggest correction
Give kudos to tab author, rate the tab!
1 2 3 4 5
comments
print report bad tab
guest
You may want to rate the tab now too:
select rating
Wanna post a correction for this tab? Suggest correction