Oops, an error
Loading. Please wait.

In Memory Of Tab

version 1
version 1

Whole song

Interactive

3,208 views 6 this week
no commentswrite comment
1 2 3 4 5
accurate
x 2
add to favorites
launch autoscroll
font size
0
reset
how to read this tab
guitar tuner
Tab Pro tools
  • play this tab
  • loop segment
  • change instrument
  • show fretboard
  • metronome
Autoscroll
slow
fast
+/-
esc
set tempo
stop
Contributor
Difficulty
Tuning
intermediate
D# G# C# F# A# D#
 SO THIS IS TH FIRST TAB OF THIS SONG ON THE INTERNET I TINK IT DESERVES ABOUT 4STARS 
post your self playing it on youtube and comment the link or send it to my youtube 
NYUrbansport IN MEMORY OF BY SILVERSTEIN

d#|-------------------------------)----------------------------------------)
a#|-------------------------------)----------------------------------------)
f#|-------11b(10)(11)--------7/9-9)------------7-7----------7-7------------)
c#|----9------------------5-------)X2------5-5----------5-5---------0-2-2-5)
g#|-7------------------3----------)----7-7----------5-5----------0-2-------)
d#|-------------------------------)----------------------------------------)
Do that X4
----------------------------------------------------------------------------
VERSE 1
STRUMMING NOT SHOWN!!!!!!!

d#|---------------------|
a#|---------------------|
f#|-5-----9-----5-----9-|
c#|-5-----9-----5-----9-|
g#|-3-----7-----3-----7-|
d#|---------------------|
only do this once.
----------------------------------------------------------------------------
VERSE 1 PT.2
STUMMING NOT SHOWN !!!!!!!!!!!!

d#|-----------------------------|
a#|-----------------------------|
f#|--12--11--9---12--11--9------|
c#|--13--12--10--13--12--10--5--|DO THIS X2
g#|--------------------------5--|
d#|--------------------------3--|

----------------------------------------------------------------------------
VERSE 2
This is the bit im not quite sure of :S EVEN THOUGH IT DOSNT SOUND RIGHT IT SOUNDS 
AWSOME WHEN YOUR PLAYING ALONG
STRUMMING NOT SHOWN
d#|------------------------------------------|
a#|------------------------------------------|
f#|--5--9--5--9----------------10--9--5--9--5|
c#|--5--9--5--9----------------10--9--5--9--5|
g#|--3--7--3--7----------------8---7--3--7--3|
d#|--------------0-3-5-7-10-12---------------|

----------------------------------------------------------------------------
SOFT FILL BIT.
not too sure bout this bit

d#|------------------------------------|
a#|------------------------------------|
f#|---------------------------0--------|X16
c#|-----------------2-----------2------|
g#|---------------3---3---3-------3----|
d#|-000-222-333-0-------0---0----------|

----------------------------------------------------------------------------
VERSE 3
ONCE AGAIN STRUMMING ISN'T SHOWN.
                                                    X3\\
d#|----------------------------------------------________________|
a#|----------------------------------------------|---------------|
f#|-12-11-12-----9-11-12-----9-1112---9-1112-----|-12--14--16----|
c#|-12-11-12--10-9-11-12-10--9-1112-109-1112-----|-12--14--16-10-|
g#|-10-9--10--10-7-9--10-10--7-9-10-107-9-10-----|-10--12--14-10-|
d#|-----------8----------8----------8------------|------------8--|

----------------------------------------------------------------------------
DO THE SECOND PART OF THE INTRO ONCE
----------------------------------------------------------------------------ABIT LIKE VERSE 3
STRUMING OBVIOUSLY NOT SHOWN

d#|--------------------------------------------------------------------------|
a#|--------------------------------------------------------------------------|
f#|--5-9-5-9---------------109-5-9-5-9-5-9-----------------------------------|
c#|--5-9-5-9---------------109-5-9-5-9-5-9-----------------------------------|
g#|--3-7-3-7---------------8-7-3-7-3-7-3-7-----------------------------------|
d#|----------0-3-5-7-10-12------------------0-5-7-10-12----------------------|
-----------------------------------------------------------------------------|
OUTRO SOLO
d#|--001200120012001200120012-001400140014-001500150015)X5------12-----------|
a#|-----------------------------------------------------------------15-14-12-|
f#|-----------------------------------------------------feedback-------------|
c#|--------------------------------------------------------------------------|
g#|--------------------------------------------------------------------------|
d#|--------------------------------------------------------------------------|

THESE ARE 12'S 14's And 15's


THANKS FR PLAYING
comments
We did not receive enough feedback on this tab! Please rate:
print report bad tab
1 2 3 4 5
I want to post or [tab]
guest
You may want to rate the tab now too:
select rating
Please do not post tabs as comments. Select "correction" instead!