Oops, an error
Loading. Please wait.

In Silent Seas We Drown tab

version 1
version 1

Whole song

Interactive

3,354 views 6 this week
no commentswrite comment
1 2 3 4 5
x 4
add to favorites
×
Save as Personal and add changes to this tab that will be seen only by you. Learn more ›
×
You can save this tab as Personal to edit and correct it or add notes. All changes will be seen only by you. Learn more »
launch autoscroll
font size
0
reset
how to read this tab
guitar tuner
edit
Autoscroll
slow
fast
+/-
esc
set tempo
stop
Tabbed by: Joshua Garcia (joshuag523@aol.com)

Tabs for the song: In Silent Seas We Drown by Silverstein
Please rate and let me know if you have any corrections. Thank you.

**For my tab of the whole album, go here:
http://tabs.ultimate-guitar.com/s/silverstein/this_is_how_the_wind_shifts_album_tab.htm **


Tuning: Drop C# (C# G C# F# A# D#)


Intro
Guitar 1:
D#||-------------------------------------|
A#||-----------------4b5~----------------|
F#||-----------------4b5~----------------|
C#||--3-0-2---3-0-2-------3-0-2---3-0-2--|
G#||--3-0-2---3-0-2-------3-0-2---3-0-2--|
C#||--3-0-2---3-0-2-------3-0-2---3-0-2--|


Guitar 1/2:
D#||---------|
A#||---------|
F#||---------|
C#||--x-x-x--|
G#||--x-x-x--|
C#||--x-x-x--|



Riff
Guitar 1/2:
D#||--------------------------------------------|-------------------------------------------|
A#||-----------------4b5~-----------------------|-----------------4b5~----------------------|
F#||-----------------4b5~-----------------------|-----------------4b5~----------------------|
C#||--3-0-2---3-0-2-------3-0-2---3-0-2--x-x-x--|--3-0-2---3-0-2-------3-0-2---x-x---x---x--|
G#||--3-0-2---3-0-2-------3-0-2---3-0-2--x-x-x--|--3-0-2---3-0-2-------3-0-2---x-x---x---x--|
C#||--3-0-2---3-0-2-------3-0-2---3-0-2--x-x-x--|--3-0-2---3-0-2-------3-0-2---x-x---x---x--|



Verse
Guitar 1:
D#||------------------------------------------------------------------|
A#||------------------------------------------------------------------|
F#||-------7---/10\7-------7---/10\7-------7---/10\7-------7---/10\7--|
C#||-------x---/x-\x-------x---/x-\x-------x---/x-\x-------x---/x-\x--|
G#||--000--5---/8-\5--000--5---/8-\5--000--5---/8-\5--000--5---/8-\5--|
C#||--000-------------000-------------000-------------000-------------|


Guitar 2:
D#||------------------------------------------------------------------|
A#||------------------------------------------------------------------|
F#||------------------------------------------------------------------|
C#||------------------------------------------------------------------|
G#||--0000------------0000------------0000------------0000------------|
C#||--0000------------0000------------0000------------0000------------|



Guitar 1:
D#||------------------------------------------------------------------------|
A#||------------------------------------------------------------------------|
F#||--14141414---1414---10101010---1010---12121212---1212---666--9~-b10r9~--|
C#||--x-x-x-x----x-x----x-x-x-x----x-x----x-x-x-x----x-x----xxx-------------|
G#||--12121212---1212---8-8-8-8----8-8----10101010---1010---444-------------|
C#||------------------------------------------------------------------------|


Guitar 2:
D#||-------------------------------------------------|
A#||-------------------------------------------------|
F#||-------------------------------------------------|
C#||--------------------------5555---55---7777---77--|
G#||--3333---33---3333---33---xxxx---xx---4444---44--|
C#||--3333---33---3333---33---2222---22--------------|



Guitar 1:
D#||-------------------------------------------------------------------|
A#||-------------------------------------------------------------------|
F#||-------7---/10\7-------7---/10\7-------7---/10\7-------7---/10\7---|
C#||-------x---/x-\x-------x---/x-\x-------x---/x-\x-------x---/x-\x---|
G#||--000--5---/8-\5--000--5---/8-\5--000--5---/8-\5--000--5---/8-\5---|
C#||--000-------------000-------------000-------------000--------------|


Guitar 2:
D#||-------------------------------------------------------------------|
A#||-------------------------------------------------------------------|
F#||-------10--/14\10------10--/14\10------10--/14\10------10--/14\10--|
C#||-------x---/x-\x-------x---/x-\x-------x---/x-\x-------x---/x-\x---|
G#||--000--8---/12\8--000--8---/12\8--000--8---/12\8--000--8---/12\8---|
C#||--000-------------000-------------000-------------000--------------|



Guitar 1:
D#||----------------------------------------------------------------------------|
A#||----------------------------------------------------------------------------|
F#||--14141414~--1414~--15151515~--1515~--12121212~--1212~--101010--9--h10p9p7--|
C#||--x-x-x-x----x-x----x-x-x-x----x-x----x-x-x-x----x-x----x-x-x---------------|
G#||--12121212~--1212~--13131313~--1313~--10101010~--1010~--8-8-8---------------|
C#||----------------------------------------------------------------------------|


Guitar 2:
D#||--------------------------------------------------|
A#||--------------------------------------------------|
F#||--------------------------------------------------|
C#||--------------------------5555~--55~--7777~--77~--|
G#||--3333~--33~--3333~--33~--xxxx---xx---4444~--44~--|
C#||--3333~--33~--3333~--33~--2222~--22~--------------|



Chorus
Guitar 1:
D#||------------------------------------------------------|
A#||------------------------------------------------------|
F#||--77--7--799--9--910101010--55--5--599--9--910101010--|
C#||--xx--x--xxx--x--xx-x-x-x---xx--x--xxx--x--xx-x-x-x---|
G#||--55--5--577--7--78-8-8-8---33--3--377--7--78-8-8-8---|
C#||------------------------------------------------------|


D#||----------------------------------------------------------------------|
A#||----------------------------------------------------------------------|
F#||--1010--10--101212--12--1214141414--1010--10--101212--12--1214141414--|
C#||--x-x---x---x-x-x---x---x-x-x-x-x---x-x---x---x-x-x---x---x-x-x-x-x---|
G#||--8-8---8---8-1010--10--1012121212--8-8---8---8-1010--10--1012121212--|
C#||----------------------------------------------------------------------|


D#||------------------------------------------------------|
A#||------------------------------------------------------|
F#||--77--7--799--9--910101010--55--5--599--9--910101010--|
C#||--xx--x--xxx--x--xx-x-x-x---xx--x--xxx--x--xx-x-x-x---|
G#||--55--5--577--7--78-8-8-8---33--3--377--7--78-8-8-8---|
C#||------------------------------------------------------|


D#||----------------------------------------------------------------------|
A#||----------------------------------------------------------------------|
F#||--1010--10--101212--12--1214141414--1414--14--141414--14--1414141414--|
C#||--x-x---x---x-x-x---x---x-x-x-x-x---x-x---x---x-x-x---x---x-x-x-x-x---|
G#||--8-8---8---8-1010--10--1012121212--1212--12--121212--12--1212121212--|
C#||----------------------------------------------------------------------|


Guitar 2:
D#||------------------------------------------------------------------------------------------|
A#||------------------------------------------------------------------------------------------|
F#||------------------------------------------------------------------------------------------|
C#||--88--8--888--8--88888--77--7--777--7--77777--00--0--000--0--00000--33--3--333--3--33333--|
G#||--88--8--888--8--88888--77--7--777--7--77777--00--0--000--0--00000--33--3--333--3--33333--|
C#||--88--8--888--8--88888--77--7--777--7--77777--00--0--000--0--00000--33--3--333--3--33333--|


D#||------------------------------------------------------------------------------------------|
A#||------------------------------------------------------------------------------------------|
F#||------------------------------------------------------------------------------------------|
C#||--88--8--888--8--88888--77--7--777--7--77777--00--0--000--0--00000--00--0--000--0--00000--|
G#||--88--8--888--8--88888--77--7--777--7--77777--00--0--000--0--00000--00--0--000--0--00000--|
C#||--88--8--888--8--88888--77--7--777--7--77777--00--0--000--0--00000--00--0--000--0--00000--|



Riff
Guitar 1/2:
D#||---------------------------------------------|
A#||-----------------4b5~------------4~------b5--|
F#||-----------------4b5~------------4~------b5--|
C#||--3-0-2---3-0-2-------3-0-2---x--------------|
G#||--3-0-2---3-0-2-------3-0-2---x--------------|
C#||--3-0-2---3-0-2-------3-0-2---x--------------|



Verse
Guitar 1:
D#||------------------------------------------------------------------|
A#||------------------------------------------------------------------|
F#||-------7---/10\7-------7---/10\7-------7---/10\7-------7---/10\7--|
C#||-------x---/x-\x-------x---/x-\x-------x---/x-\x-------x---/x-\x--|
G#||--000--5---/8-\5--000--5---/8-\5--000--5---/8-\5--000--5---/8-\5--|
C#||--000-------------000-------------000-------------000-------------|


Guitar 2:
D#||------------------------------------------------------------------|
A#||------------------------------------------------------------------|
F#||------------------------------------------------------------------|
C#||------------------------------------------------------------------|
G#||--0000-------------0000-------------0000-------------0000---------|
C#||--0000-------------0000-------------0000-------------0000---------|



Guitar 1:
D#||------------------------------------------------------------------------|
A#||------------------------------------------------------------------------|
F#||--14141414---1414---10101010---1010---12121212---1212---666--9~-b10r9~--|
C#||--x-x-x-x----x-x----x-x-x-x----x-x----x-x-x-x----x-x----xxx-------------|
G#||--12121212---1212---8-8-8-8----8-8----10101010---1010---444-------------|
C#||------------------------------------------------------------------------|


Guitar 2:
D#||-------------------------------------------------|
A#||-------------------------------------------------|
F#||-------------------------------------------------|
C#||--------------------------5555---55---7777---77--|
G#||--3333---33---3333---33---xxxx---xx---4444---44--|
C#||--3333---33---3333---33---2222---22--------------|



Guitar 1:
D#||-------------------------------------------------------------------|
A#||-------------------------------------------------------------------|
F#||-------7---/10\7-------7---/10\7-------7---/10\7-------7---/10\7---|
C#||-------x---/x-\x-------x---/x-\x-------x---/x-\x-------x---/x-\x---|
G#||--000--5---/8-\5--000--5---/8-\5--000--5---/8-\5--000--5---/8-\5---|
C#||--000-------------000-------------000-------------000--------------|


Guitar 2:
D#||-------------------------------------------------------------------|
A#||-------------------------------------------------------------------|
F#||-------10--/14\10------10--/14\10------10--/14\10------10--/14\10--|
C#||-------x---/x-\x-------x---/x-\x-------x---/x-\x-------x---/x-\x---|
G#||--000--8---/12\8--000--8---/12\8--000--8---/12\8--000--8---/12\8---|
C#||--000-------------000-------------000-------------000--------------|



Guitar 1:
D#||----------------------------------------------------------------------------|
A#||----------------------------------------------------------------------------|
F#||--14141414~--1414~--15151515~--1515~--12121212~--1212~--101010--9--h10p9p7--|
C#||--x-x-x-x----x-x----x-x-x-x----x-x----x-x-x-x----x-x----x-x-x---------------|
G#||--12121212~--1212~--13131313~--1313~--10101010~--1010~--8-8-8---------------|
C#||----------------------------------------------------------------------------|


Guitar 2:
D#||--------------------------------------------------|
A#||--------------------------------------------------|
F#||--------------------------------------------------|
C#||--------------------------5555~--55~--7777~--77~--|
G#||--3333~--33~--3333~--33~--xxxx---xx---4444~--44~--|
C#||--3333~--33~--3333~--33~--2222~--22~--------------|



Chorus
Guitar 1:
D#||------------------------------------------------------|
A#||------------------------------------------------------|
F#||--77--7--799--9--910101010--55--5--599--9--910101010--|
C#||--xx--x--xxx--x--xx-x-x-x---xx--x--xxx--x--xx-x-x-x---|
G#||--55--5--577--7--78-8-8-8---33--3--377--7--78-8-8-8---|
C#||------------------------------------------------------|


D#||----------------------------------------------------------------------|
A#||----------------------------------------------------------------------|
F#||--1010--10--101212--12--1214141414--1010--10--101212--12--1214141414--|
C#||--x-x---x---x-x-x---x---x-x-x-x-x---x-x---x---x-x-x---x---x-x-x-x-x---| x2
G#||--8-8---8---8-1010--10--1012121212--8-8---8---8-1010--10--1012121212--|
C#||----------------------------------------------------------------------|


Guitar 2:
D#||------------------------------------------------------------------------------------------|
A#||------------------------------------------------------------------------------------------|
F#||------------------------------------------------------------------------------------------|
C#||--88--8--888--8--88888--77--7--777--7--77777--00--0--000--0--00000--33--3--333--3--33333--| x2
G#||--88--8--888--8--88888--77--7--777--7--77777--00--0--000--0--00000--33--3--333--3--33333--|
C#||--88--8--888--8--88888--77--7--777--7--77777--00--0--000--0--00000--33--3--333--3--33333--|



Bridge
Guitar 1:
D#||-----------------------------------------------------------------------|
A#||-----------------------------------------------------------------------|
F#||--7--7--7-77--77-/9--9--9-99--99-\5--5--5-55--55--/10--10--10-9--9--9--|
C#||-----------------------------------------------------------------------|
G#||-----------------------------------------------------------------------|
C#||-----------------------------------------------------------------------|


D#||---------------------------------------------------------------------------------------|
A#||---------------------------------------------------------------------------------------|
F#||--7--7--7-77--77-/9--9--9-99--99-/10--10--10-1010--1010--10--10--10--1010101010101010--|
C#||---------------------------------------------------------------------------------------|
G#||---------------------------------------------------------------------------------------|
C#||---------------------------------------------------------------------------------------|


Guitar 2:
D#||--------------------------------------------------------------------------------------------|
A#||--------------------------------------------------------------------------------------------|
F#||--15--15--15-1515--1515-/17--17--17-1717--1717-\14--14--14-15--14--12-10--10--10-12--14-10--|
C#||--x---x---x--x-x---x-x--/x---x---x--x-x---x-x--\x---x---x--x---x---x--x---x---x--x---x--x---|
G#||--13--13--13-1313--1313-/15--15--15-1515--1515-\12--12--12-13--12--10-8---8---8--10--12-8---|
C#||--------------------------------------------------------------------------------------------|


D#||---------------------------------------------------------------------|
A#||---------------------------------------------------------------------|
F#||--7--7--7-77--77--5--5--5-55--55--7--7--7-77--77--7--7--7--77777777--|
C#||--x--x--x-xx--xx--x--x--x-xx--xx--x--x--x-xx--xx--x--x--x--xxxxxxxx--|
G#||--5--5--5-55--55--3--3--3-33--33--5--5--5-55--55--5--5--5--55555555--|
C#||---------------------------------------------------------------------|



Breakdown
Guitar 1:
D#||-------------------------------------------------|
A#||-------------------------------------------------|
F#||-------------------------------------------------|
C#||--0---0---0---0---0---0---0---0------------------| x4
G#||--0---0---0---0---0---0---0---0-----55---5---55--|
C#||--0---0---0---0---0---0---0---0---0----0---0-----|


Guitar 2:
D#||-------------------------------------------------|
A#||-------------------------------------------------|
F#||-------------------------------------------------|
C#||--0---0---0---0---0---0---0---0------------------|
G#||--0---0---0---0---0---0---0---0-----88---8---88--|
C#||--0---0---0---0---0---0---0---0---0----0---0-----|


D#||------------------------------------------------------|
A#||------------------------------------------------------|
F#||------------------------------------------------------|
C#||--0---0---0---0---0---0---0---0-----------------------| x2
G#||--0---0---0---0---0---0---0---0-----1313---13---1212--|
C#||--0---0---0---0---0---0---0---0---0------0----0-------|



Bridge
Guitar 1:
D#||---------------------|
A#||---------------------|
F#||---------------------|
C#||--0~-----------~'7~--|
G#||--0~-----------------|
C#||--0~-----------------|


Guitar 2:
D#||---------------------|
A#||---------------------|
F#||---------------------|
C#||--0~-----------------|
G#||--0~-----------~'9~--|
C#||--0~-----------------|


Guitar 1:
D#||--------------------------------------------|-------------------------------------|
A#||-----------------4b5~-----------------------|-----------------4b5~----------------|
F#||-----------------4b5~-----------------------|-----------------4b5~----------------|
C#||--3-0-2---3-0-2-------3-0-2---3-0-2--x-x-x--|--3-0-2---3-0-2-------3-0-2---3-0-2--|
G#||--3-0-2---3-0-2-------3-0-2---3-0-2--x-x-x--|--3-0-2---3-0-2-------3-0-2---3-0-2--|
C#||--3-0-2---3-0-2-------3-0-2---3-0-2--x-x-x--|--3-0-2---3-0-2-------3-0-2---3-0-2--|


Guitar 2:
D#||--------------------------------------------|-------------------------------------|
A#||--------------------------------------------|-------------------------------------|
F#||--------------------------------------------|---------------'5~-------------------|
C#||--------------------------------------------|--0----------------------------------|
G#||--('9~)-------------------------------------|--0----------------------------------|
C#||--------------------------------------------|--0----------------------------------|
                                                   .


Guitar 3 (Dub):
D#||--------------------------------------------|-------------------------------------|
A#||--------------------------------------------|-------------------------------------|
F#||--------------------------------------------|---------------'2~---------'3~-------|
C#||--('7~)-------------------------------------|--0----------------------------------|
G#||--------------------------------------------|--0----------------------------------|
C#||--------------------------------------------|--0----------------------------------|
                                                   .



Riff
Guitar 1/2:
D#||--------------------------------------------|-------------------------------------------|
A#||-----------------4b5~-----------------------|-----------------4b5~----------------------|
F#||-----------------4b5~-----------------------|-----------------4b5~----------------------|
C#||--3-0-2---3-0-2-------3-0-2---3-0-2--x-x-x--|--3-0-2---3-0-2-------3-0-2---x-x---x---x--|
G#||--3-0-2---3-0-2-------3-0-2---3-0-2--x-x-x--|--3-0-2---3-0-2-------3-0-2---x-x---x---x--|
C#||--3-0-2---3-0-2-------3-0-2---3-0-2--x-x-x--|--3-0-2---3-0-2-------3-0-2---x-x---x---x--|


D#||-----------------------------------------|-----------------------------------------|
A#||-----------------------------------------|-----------------------------------------|
F#||-----------------------------------------|-----------------------------------------|
C#||--3--0--2-------------3--0--2------------|--3--0--2-------------3--0--2------------|
G#||--3--0--2----5555555--3--0--2------------|--3--0--2----5555555--3--0--2------------|
C#||--3--0--2--0----------3--0--2--xxxxxxxx--|--3--0--2--0----------3--0--2--xxxxxxxx--|



Chorus
Guitar 1:
D#||------------------------------------------------------|
A#||------------------------------------------------------|
F#||--77--7--799--9--910101010--55--5--599--9--910101010--|
C#||--xx--x--xxx--x--xx-x-x-x---xx--x--xxx--x--xx-x-x-x---|
G#||--55--5--577--7--78-8-8-8---33--3--377--7--78-8-8-8---|
C#||------------------------------------------------------|


D#||----------------------------------------------------------------------|
A#||----------------------------------------------------------------------|
F#||--1010--10--101212--12--1214141414--1010--10--101212--12--1214141414--|
C#||--x-x---x---x-x-x---x---x-x-x-x-x---x-x---x---x-x-x---x---x-x-x-x-x---| x2
G#||--8-8---8---8-1010--10--1012121212--8-8---8---8-1010--10--1012121212--|
C#||----------------------------------------------------------------------|


Guitar 2:
D#||------------------------------------------------------------------------------------------|
A#||------------------------------------------------------------------------------------------|
F#||------------------------------------------------------------------------------------------|
C#||--88--8--888--8--88888--77--7--777--7--77777--00--0--000--0--00000--33--3--333--3--33333--| x2
G#||--88--8--888--8--88888--77--7--777--7--77777--00--0--000--0--00000--33--3--333--3--33333--|
C#||--88--8--888--8--88888--77--7--777--7--77777--00--0--000--0--00000--33--3--333--3--33333--|



Bridge
Guitar 1:
D#||-----------------------------------------------------------------------|
A#||-----------------------------------------------------------------------|
F#||--7--7--7-77--77-/9--9--9-99--99-\5--5--5-55--55--/10--10--10-9--9--9--|
C#||-----------------------------------------------------------------------|
G#||-----------------------------------------------------------------------|
C#||-----------------------------------------------------------------------|


D#||----------------------------------|
A#||----------------------------------|
F#||--7--7--7-77--77-/6--6--6-66--66--|
C#||----------------------------------|
G#||----------------------------------|
C#||----------------------------------|


Guitar 2:
D#||--------------------------------------------------------------------------------------------|
A#||--------------------------------------------------------------------------------------------|
F#||--15--15--15-1515--1515-/17--17--17-1717--1717-\14--14--14-15--14--12-10--10--10-12--14-10--|
C#||--x---x---x--x-x---x-x--/x---x---x--x-x---x-x--\x---x---x--x---x---x--x---x---x--x---x--x---|
G#||--13--13--13-1313--1313-/15--15--15-1515--1515-\12--12--12-13--12--10-8---8---8--10--12-8---|
C#||--------------------------------------------------------------------------------------------|


D#||----------------------------------|
A#||----------------------------------|
F#||--7--7--7-77--77-\6--6--6-66--66--|
C#||--x--x--x-xx--xx-\x--x--x-xx--xx--|
G#||--5--5--5-55--55-\4--4--4-44--44--|
C#||----------------------------------|



Outro
Guitar 1:
D#||-------------------------------------------------|
A#||-------------------------------------------------|
F#||-------------------------------------------------|
C#||--0---0---0---0---0---0---0---0------------------| x2
G#||--0---0---0---0---0---0---0---0-----55---5---55--|
C#||--0---0---0---0---0---0---0---0---0----0---0-----|


Guitar 2:
D#||-------------------------------------------------|
A#||-------------------------------------------------|
F#||-------------------------------------------------|
C#||--0---0---0---0---0---0---0---0------------------|
G#||--0---0---0---0---0---0---0---0-----88---8---88--|
C#||--0---0---0---0---0---0---0---0---0----0---0-----|


D#||------------------------------------------------------|
A#||------------------------------------------------------|
F#||------------------------------------------------------|
C#||--0---0---0---0---0---0---0---0-----------------------|
G#||--0---0---0---0---0---0---0---0-----1313---13---1212--|
C#||--0---0---0---0---0---0---0---0---0------0----0-------|




Tablature Legend
----------------
 h   hammer-on
 p   pull-off
 b   bend
 pb  pre-bend
 r   release bend
 ~   hold / vibrato
 .   palm mute
 /   slide up
 \   slide down
 *   pinch harmonic
 '   natural harmonic
 x   mute note
 T   tap
Suggest correction
Creating personal tab
Creating personal tab
You can edit any tab online and save it as your Personal.

You can edit, replace or remove any tab part or add personal notes – all changes will be seen only by you.

Personal tabs can be accessed anytime from any device, even offline.
Learn more »
comments
print report bad tab
guest
You may want to rate the tab now too:
select rating
Wanna post a correction for this tab? Suggest correction