Oops, an error
Loading. Please wait.

Intervention Tab

version 1
version 1

Whole song

765 views 3 this week
no commentswrite comment
1 2 3 4 5
2 more votes to show rating
add to favorites
launch autoscroll
font size
0
reset
how to read this tab
guitar tuner
Autoscroll
slow
fast
+/-
esc
set tempo
stop
Help us to improve Ultimate-Guitar.com Take our survey!
×
Difficulty
Tuning
intermediate
C# G# C# F# A# D#
Intervention by Silverstein, off the album Rescue

The solo may not be completely correct, but if you find an error, let me know! And I 
would love feedback and corrections, so e-mail me at cobrien543@gmail.com.

Key:
. Palm Mute
~ Let note ring
p Pull off

Intro

(Clean)
D#|----------------|
A#|----------------|
F#|----------------|
C#|-0~---3~---5~---|
G#|-0~---3~---5~---|
C#|-0~---3~---5~---|

(Distortion)
D#|----------------|
A#|----------------|
F#|----------------|
C#|-7~--7----------|
G#|-7~--7----------|
C#|-7~--7----------|

Verse 1

D#|----------------------------------------------------|
A#|----------------------------------------------------|
F#|----------------------------------------------------|
C#|---------------------------------------------5-5-5--|
G#|-------8--7--5--7--8--7--------8--7--5--7--8--------|
C#|-0-0-0-------------------0-0-0----------------------|
    . . .                   . . .

D#|--------------------------------------------------------------------|
A#|--------------------------------------------------------------------|
F#|--------------------------------------------------------------------|
C#|--------------------------------------------------------------------|
G#|-------10--8--10--12--10--8-----------12--10--12--13--12--10-10-10--|
C#|-8-8-8-----------------------10-10-10-------------------------------|
    . . .                       .  .  .
(Repeat once)

Chorus

D#|-------------------------------------|
A#|-------------------------------------|
F#|-------------------------------------|
C#|-0-0-0-0--8-8-8-8--5-5-5-5--7-7-7-7--| x2
G#|-0-0-0-0--8-8-8-8--5-5-5-5--7-7-7-7--|
C#|-0-0-0-0--8-8-8-8--5-5-5-5--7-7-7-7--|

D#|------------------------------------|
A#|------------------------------------|
F#|-7-7-7-7----------------------------|
C#|-7-7-7-7--5-5-5-5--8-8-8-8-8-8-8-8--| x2
G#|-5-5-5-5--5-5-5-5--8-8-8-8-8-8-8-8--|
C#|----------5-5-5-5--8-8-8-8-8-8-8-8--|

Verse 2

D#|----------------------------------------------------|
A#|----------------------------------------------------|
F#|----------------------------------------------------|
C#|---------------------------------------------5-5-5--|
G#|-------8--7--5--7--8--7--------8--7--5--7--8--------|
C#|-0-0-0-------------------0-0-0----------------------|
    . . .                   . . .

D#|--------------------------------------------------------------------|
A#|--------------------------------------------------------------------|
F#|--------------------------------------------------------------------|
C#|--------------------------------------------------------------------|
G#|-------10--8--10--12--10--8-----------12--10--12--13--12--10-10-10--|
C#|-8-8-8-----------------------10-10-10-------------------------------|
    . . .                       .  .  .
(Second guitar repeats riff once)

D#|-------------------------------------------------------------|
A#|-------------------------------------------------------------|
F#|-------------------------------------------------------------|
C#|-0-0-0------0-0-0-0------8-8-8------10-10-10-10-10-10-10-10--|
G#|-0-0-0------0-0-0-0------8-8-8------10-10-10-10-10-10-10-10--|
C#|-0-0-0------0-0-0-0------8-8-8------10-10-10-10-10-10-10-10--|
    . . .      . . . .      . . .      .  .  .  .  .  .  .  .
D#|----------|
A#|----------|
F#|----------|
C#|-8-8-7-5--|
G#|-8-8-7-5--|
C#|-8-8-7-5--|

Chorus

D#|-------------------------------------|
A#|-------------------------------------|
F#|-------------------------------------|
C#|-0-0-0-0--8-8-8-8--5-5-5-5--7-7-7-7--| x2
G#|-0-0-0-0--8-8-8-8--5-5-5-5--7-7-7-7--|
C#|-0-0-0-0--8-8-8-8--5-5-5-5--7-7-7-7--|

D#|------------------------------------|
A#|------------------------------------|
F#|-7-7-7-7----------------------------|
C#|-7-7-7-7--5-5-5-5--8-8-8-8-8-8-8-8--| x2
G#|-5-5-5-5--5-5-5-5--8-8-8-8-8-8-8-8--|
C#|----------5-5-5-5--8-8-8-8-8-8-8-8--|

Bridge

D#|-------------------------------------------|
A#|-------------------------------------------|
F#|-------------------------------------------|
C#|-8-8-8-8-8-8-8-8--10-10-10-10-10-10-10-10--|
G#|-8-8-8-8-8-8-8-8--10-10-10-10-10-10-10-10--|
C#|-8-8-8-8-8-8-8-8--10-10-10-10-10-10-10-10--|

D#|-----------------------------------|
A#|-----------------------------------|
F#|-----------------------------------|
C#|-0-0-0-0-0-0-0-0--5-5-5-5-5-5-5-5--|
G#|-0-0-0-0-0-0-0-0--5-5-5-5-5-5-5-5--|
C#|-0-0-0-0-0-0-0-0--5-5-5-5-5-5-5-5--|
(Repeat once)

D#|-----------------------------------------------------|
A#|-----------------------------------------------------|
F#|-----------------------------------------------------|
C#|------8-8p7-------8-8p7-------10-10p8-------10-10p8--|
G#|-----------------------------------------------------|
C#|-5--5--------5--5--------8--8----------8--8----------|
       .           .           .             .

D#|---------------------------------------------------------|
A#|---------------------------------------------------------|
F#|---------------------------------------------------------|
C#|-0-0-0-0-0-0-0-0--5-5-5-5-5-5-5-5--8-8-8-8-8-8-8-8--10~--|
G#|-0-0-0-0-0-0-0-0--5-5-5-5-5-5-5-5--8-8-8-8-8-8-8-8--10~--|
C#|-0-0-0-0-0-0-0-0--5-5-5-5-5-5-5-5--8-8-8-8-8-8-8-8--10~--|


Tremolo Solo!
(Pick quickly!)

D#|------------------------------------|
A#|------------------------------------|
F#|------------------------------------|
C#|---------------------------------5--|
G#|-8-7-5-7-8-7-5-7---8-7-5-7-8-7-5----|
C#|------------------------------------|

D#|----------------------------------------------|
A#|----------------------------------------------|
F#|----------------------------------------------|
C#|--------------------------------13-12-10-8-7--|
G#|-10-8-10-12-10-8-7-8---12-10-12---------------|
C#|----------------------------------------------|

D#|-------------------------------------|
A#|-------------------------------------|
F#|-------------------------------------|
C#|-------------------------------------|
G#|-8-7-5-7-8-7-5-7---8-7-5-7-10-8-7-8--|
C#|-------------------------------------|

D#|-----------------------------------------------|
A#|-----------------------------------------------|
F#|-----------------------------------------------|
C#|-------------------------8-7-8-10-12-10-12-13--|
G#|-10-8-10-12-13-12-10-8-------------------------|
C#|-----------------------------------------------|

D#|------------------------------------|
A#|------------------------------------|
F#|------------------------------------|
C#|------------------------------------|
G#|-8-7-5-3-5-7-5-3---8-7-5-3-5-7-5-7--|
C#|------------------------------------|

D#|-----------------------------------------------|
A#|-----------------------------------------------|
F#|-----------------------------------------------|
C#|-----------------------------------13-12-10-8--|
G#|-10-8-10-12-10-8-7-8---12-10-12-13-------------|
C#|-----------------------------------------------|

D#|-------------------------------------|
A#|-------------------------------------|
F#|-------------------------------------|
C#|-------------------------------------|
G#|-8-7-5-7-8-7-5-7---8-7-5-7-10-8-7-8--|
C#|-------------------------------------|

D#|----------------------------------------------|
A#|----------------------------------------------|
F#|----------------------------------------------|
C#|--------------------------7~---12-12-12-10-8--|
G#|-10-8-10-12-13-12-10-12---7~------------------|
C#|--------------------------7~------------------|

Chorus

D#|-------------------------------------|
A#|-------------------------------------|
F#|-------------------------------------|
C#|-0-0-0-0--8-8-8-8--5-5-5-5--7-7-7-7--| x2
G#|-0-0-0-0--8-8-8-8--5-5-5-5--7-7-7-7--|
C#|-0-0-0-0--8-8-8-8--5-5-5-5--7-7-7-7--|

D#|------------------------------------|
A#|------------------------------------|
F#|-7-7-7-7----------------------------|
C#|-7-7-7-7--5-5-5-5--8-8-8-8-8-8-8-8--| x2
G#|-5-5-5-5--5-5-5-5--8-8-8-8-8-8-8-8--|
C#|----------5-5-5-5--8-8-8-8-8-8-8-8--|

D#|-------------|
A#|-------------|
F#|-------------|
C#|-8-8-7-5--0--|
G#|-8-8-7-5--0--|
C#|-8-8-7-5--0--|

Silverstein’s official website:
http://www.silversteinmusic.com/
Suggest correction
Give kudos to tab author, rate the tab!
1 2 3 4 5
comments
print report bad tab
guest
You may want to rate the tab now too:
select rating
Wanna post a correction for this tab? Suggest correction