Oops, an error
Loading. Please wait.

Je Me Souviens tab

version 1
version 1

Whole song

Interactive

1,588 views 1 this week
no commentswrite comment
1 2 3 4 5
x 3
add to favorites
×
Save as Personal and add changes to this tab that will be seen only by you. Learn more ›
×
You can save this tab as Personal to edit and correct it or add notes. All changes will be seen only by you. Learn more »
launch autoscroll
font size
0
reset
how to read this tab
guitar tuner
edit
Autoscroll
slow
fast
+/-
esc
set tempo
stop
Tabbed by: Joshua Garcia (joshuag523@aol.com)

Tabs for the song: Je me Souviens by Silverstein
Please rate and let me know if you have any corrections. Thank you.


** For my tab of the whole album, go here:
http://tabs.ultimate-guitar.com/s/silverstein/i_am_alive_in_everything_i_touch_album_tab.htm **


Tuning: Drop C# (C# G# C# F# A# D#)


Intro
Guitar 1:
D#||--------------------------------------------------------|
A#||--------------------------------------------------------|
F#||--------------------------------------------------------|
C#||--0---0-------------0---0-------------0---0-------------|
G#||--0---0--8-7-5-7-8--0---0--8-7-5-7-8--0---0--8-7-5-7-8--|
C#||--0---0-------------0---0-------------0---0-------------|


Guitar 2:
D#||--------------------------------------------------------|
A#||--------------------------------------------------------|
F#||--------------------------------------------------------|
C#||--0---0-------------0---0-------------0---0-------------|
G#||--0---0-------------0---0-------------0---0-------------|
C#||--0---0-------------0---0-------------0---0-------------|


Guitar 1/2:
D#||-------------------|
A#||-------------------|
F#||-------------------|
C#||--8----------------|
G#||--8----------------|
C#||--8---3-5-7-8-7-5--|


D#||--------------------------------------------------------|
A#||--------------------------------------------------------|
F#||--------------------------------------------------------|
C#||--0---0-------------0---0-------------0---0-------------|
G#||--0---0--8-7-5-7-8--0---0--8-7-5-7-8--0---0--8-7-5-7-8--|
C#||--0---0-------------0---0-------------0---0-------------|


D#||--------------------------------------|
A#||--------------------------------------|
F#||--------------------------------------|
C#||--2---3---5---7---6~------------------|
G#||--3---3---5---7---7~------\\pick-\\---|
C#||--2---3---5---7---6~-------\\slide\\--|



Verse
Guitar 1/2:
D#||-----------------------------------------------------------------------------|
A#||-----------------------------------------------------------------------------|
F#||---------1010101010---------1010101010--------1010101010---------1010101010--|
C#||--0---0--x-x-x-x-x---0---0--x-x-x-x-x---8--8--x-x-x-x-x---7---7--x-x-x-x-x---|
G#||--0---0--8-8-8-8-8---0---0--8-8-8-8-8---8--8--8-8-8-8-8---8---8--8-8-8-8-8---|
C#||--0---0--------------0---0--------------8--8--------------7---7--------------|


D#||--------------------------------------------------------------------------------|
A#||-------------------------------------------------1111111111---------1010101010--|
F#||-----------9-9-9-9-9-----------9-9-9-9-9---------x-x-x-x-x----------x-x-x-x-x---|
C#||--10---10--x-x-x-x-x--10---10--x-x-x-x-x--8---8--8-8-8-8-8---7---7--7-7-7-7-7---|
G#||--10---10--7-7-7-7-7--10---10--7-7-7-7-7--8---8--------------8---8--------------|
C#||--10---10-------------10---10-------------8---8--------------7---7--------------|



Guitar 1 (Left):
D#||------------------------------------------------------------------------------|
A#||---------1010101010---------1010101010---------1313131313---------1313131313--|
F#||---------x-x-x-x-x----------x-x-x-x-x----------x-x-x-x-x----------x-x-x-x-x---|
C#||--0---0--7-7-7-7-7---0---0--7-7-7-7-7---8---8--1010101010--7---7--1010101010--|
G#||--0---0--------------0---0--------------8---8--------------8---8--------------|
C#||--0---0--------------0---0--------------8---8--------------7---7--------------|


D#||----------------------------------------------------------------------------------|
A#||--------------------------------1313131313---------1515151515---------1313131313--|
F#||-----------1414141414-----------x-x-x-x-x----------x-x-x-x-x----------x-x-x-x-x---|
C#||--10---10--x-x-x-x-x---10---10--1010101010--8---8--1212121212--7---7--1010101010--|
G#||--10---10--1212121212--10---10--------------8---8--------------8---8--------------|
C#||--10---10--------------10---10--------------8---8--------------7---7--------------|


Guitar 2 (Right):
D#||-----------------------------------------------------------------------------|
A#||-----------------------------------------------------------------------------|
F#||---------1010101010---------1010101010--------1010101010---------1010101010--|
C#||--0---0--x-x-x-x-x---0---0--x-x-x-x-x---8--8--x-x-x-x-x---7---7--x-x-x-x-x---|
G#||--0---0--8-8-8-8-8---0---0--8-8-8-8-8---8--8--8-8-8-8-8---8---8--8-8-8-8-8---|
C#||--0---0--------------0---0--------------8--8--------------7---7--------------|


D#||--------------------------------------------------------------------------------|
A#||-------------------------------------------------1111111111---------1010101010--|
F#||-----------9-9-9-9-9-----------9-9-9-9-9---------x-x-x-x-x----------x-x-x-x-x---|
C#||--10---10--x-x-x-x-x--10---10--x-x-x-x-x--8---8--8-8-8-8-8---7---7--7-7-7-7-7---|
G#||--10---10--7-7-7-7-7--10---10--7-7-7-7-7--8---8--------------8---8--------------|
C#||--10---10-------------10---10-------------8---8--------------7---7--------------|



Pre-Chorus
Guitar 1:
D#||---------------------------------------|
A#||---------------------------------------|
F#||--3~--------5~--------6~--------10--9--|
C#||--x---------x---------x---------x---x--|
G#||--1~--------3~--------4~--------8---7--|
C#||---------------------------------------|


D#||-------------------------------------------------------|
A#||-------------------------------------------------------|
F#||--3~--------5---------6-6-6-6-6-6-6-6-7-7-7-7-9-9-9-9--|
C#||--x---------x---------7-7-7-7-7-7-7-7-7-7-7-7-7-7-7-7--|
G#||--1~--------3------------------------------------------|
C#||-------------------------------------------------------|


Guitar 2:
D#||---------------------------------------|-----------------------------------------------------|
A#||---------------------------------------|-----------------------------------------------------|
F#||---------------------------------------|----------------------2-2-2-2-2-2-2-2-2-2-2-2-2-2-2--|
C#||--5~---3~---7~---5~---5~--------7---5--|--5~---3~---7~---5~---2-2-2-2-2-2-2-2-2-2-2-2-2-2-2--|
G#||--1~--------3~--------4~--------5---3--|--1~--------3~--------0-0-0-0-0-0-0-0-0-0-0-0-0-0-0--|
C#||---------------------------------------|-----------------------------------------------------|



Chorus
Guitar 1:
D#||---------------------------------------------------------------------------------------------------|
A#||--------------18-18-------17-17-------18-18-------------------18-18-------17-17-------18-18--------|
F#||--------17-17-------17-17-------17-17-------17-17-------17-17-------17-17-------17-17-------17-17--|
C#||--15-15-------------------------------------------14-14--------------------------------------------|
G#||---------------------------------------------------------------------------------------------------|
C#||---------------------------------------------------------------------------------------------------|


D#||---------------------------------------------------------------------------------------------------|
A#||--18-18-18-18-18-18-18-18-17-17-17-17-17-17-17-17-15-15-15-15-15-15-15-15-15-15-15-15-15-15-15-15--|
F#||--17-17-17-17-17-17-17-17-17-17-17-17-17-17-17-17-15-15-15-15-15-15-15-15-15-15-15-15-15-15-15-15--|
C#||---------------------------------------------------------------------------------------------------|
G#||---------------------------------------------------------------------------------------------------|
C#||---------------------------------------------------------------------------------------------------|


D#||---------------------------------------------------------------------------------------------------|
A#||--------------18-18-------17-17-------18-18-------------------18-18-------17-17-------18-18--------|
F#||--------17-17-------17-17-------17-17-------17-17-------17-17-------17-17-------17-17-------17-17--|
C#||--15-15-------------------------------------------14-14--------------------------------------------|
G#||---------------------------------------------------------------------------------------------------|
C#||---------------------------------------------------------------------------------------------------|


D#||------------------------------------------------------------------------------------------------|
A#||--18~---------------------17~---------------------15-15-15-15-15-15-15-15-15-15-15-15-15-15-15--|
F#||--17~---------------------17~---------------------15-15-15-15-15-15-15-15-15-15-15-15-15-15-15--|
C#||------------------------------------------------------------------------------------------------|
G#||------------------------------------------------------------------------------------------------|
C#||------------------------------------------------------------------------------------------------|


Guitar 2:
D#||-------------------------------------------------------------------|
A#||-------------------------------------------------------------------|
F#||-------------------------------------------------------------------|
C#||--3-3-3-3-3-3-3-3-3-3-3-3-3-3-3-5-2-2-2-2-2-2-2-2-2-2-2-2-2-2-2-2--|
G#||--3-3-3-3-3-3-3-3-3-3-3-3-3-3-3-5-3-3-3-3-3-3-3-3-3-3-3-3-3-3-3-3--|
C#||--3-3-3-3-3-3-3-3-3-3-3-3-3-3-3-5-2-2-2-2-2-2-2-2-2-2-2-2-2-2-2-2--|


D#||-------------------------------------------------------------------|
A#||-------------------------------------------------------------------|
F#||--7-7-7-7-7-7-7-7-5-5-5-5-5-5-5-5-3-3-3-3-3-3-3-3-3-3-3-3-3-3-3-3--|
C#||--7-7-7-7-7-7-7-7-5-5-5-5-5-5-5-5-3-3-3-3-3-3-3-3-3-3-3-3-3-3-3-3--|
G#||--5-5-5-5-5-5-5-5-3-3-3-3-3-3-3-3-1-1-1-1-1-1-1-1-1-1-1-1-1-1-1-1--|
C#||-------------------------------------------------------------------|


D#||-------------------------------------------------------------------|
A#||-------------------------------------------------------------------|
F#||-------------------------------------------------------------------|
C#||--3-3-3-3-3-3-3-3-3-3-3-3-3-3-3-5-2-2-2-2-2-2-2-2-2-2-2-2-2-2-2-2--|
G#||--3-3-3-3-3-3-3-3-3-3-3-3-3-3-3-5-3-3-3-3-3-3-3-3-3-3-3-3-3-3-3-3--|
C#||--3-3-3-3-3-3-3-3-3-3-3-3-3-3-3-5-2-2-2-2-2-2-2-2-2-2-2-2-2-2-2-2--|


D#||-----------------------------------------------------------------|
A#||-----------------------------------------------------------------|
F#||------------------5~--------------3-3-3-3-3-3-3-3-3-3-3-3-3-3-3--|
C#||--0~--------------5~--------------3-3-3-3-3-3-3-3-3-3-3-3-3-3-3--|
G#||--0~--------------3~--------------1-1-1-1-1-1-1-1-1-1-1-1-1-1-1--|
C#||--0~-------------------------------------------------------------|



Pre-Verse
Guitar 1:
D#||--------------------------------------------------------|
A#||--------------------------------------------------------|
F#||--------------------------------------------------------|
C#||--0---0-------------0---0-------------0---0-------------|
G#||--0---0--8-7-5-7-8--0---0--8-7-5-7-8--0---0--8-7-5-7-8--|
C#||--0---0-------------0---0-------------0---0-------------|


Guitar 2:
D#||--------------------------------------------------------|
A#||--------------------------------------------------------|
F#||--------------------------------------------------------|
C#||--0---0-------------0---0-------------0---0--7-5-3-5-7--|
G#||--0---0-------------0---0--8-7-5-7-8--0---0-------------|
C#||--0---0-------------0---0-------------0---0-------------|


Guitar 1/2:
D#||--------------------------------------|
A#||--------------------------------------|
F#||--------------------------------------|
C#||--2---3---5---7---6~------------------|
G#||--3---3---5---7---7~------\\pick-\\---|
C#||--2---3---5---7---6~-------\\slide\\--|



Verse
Guitar 1/2:
D#||-----------------------------------------------------------------------------|
A#||-----------------------------------------------------------------------------|
F#||---------1010101010---------1010101010--------1010101010---------1010101010--|
C#||--0---0--x-x-x-x-x---0---0--x-x-x-x-x---8--8--x-x-x-x-x---7---7--x-x-x-x-x---|
G#||--0---0--8-8-8-8-8---0---0--8-8-8-8-8---8--8--8-8-8-8-8---8---8--8-8-8-8-8---|
C#||--0---0--------------0---0--------------8--8--------------7---7--------------|


D#||--------------------------------------------------------------------------------|
A#||-------------------------------------------------1111111111---------1010101010--|
F#||-----------9-9-9-9-9-----------9-9-9-9-9---------x-x-x-x-x----------x-x-x-x-x---|
C#||--10---10--x-x-x-x-x--10---10--x-x-x-x-x--8---8--8-8-8-8-8---7---7--7-7-7-7-7---|
G#||--10---10--7-7-7-7-7--10---10--7-7-7-7-7--8---8--------------8---8--------------|
C#||--10---10-------------10---10-------------8---8--------------7---7--------------|



Guitar 1 (Left):
D#||------------------------------------------------------------------------------|
A#||---------1010101010---------1010101010---------1313131313---------1313131313--|
F#||---------x-x-x-x-x----------x-x-x-x-x----------x-x-x-x-x----------x-x-x-x-x---|
C#||--0---0--7-7-7-7-7---0---0--7-7-7-7-7---8---8--1010101010--7---7--1010101010--|
G#||--0---0--------------0---0--------------8---8--------------8---8--------------|
C#||--0---0--------------0---0--------------8---8--------------7---7--------------|


D#||----------------------------------------------------------------------------------|
A#||--------------------------------1313131313---------1515151515---------1313131313--|
F#||-----------1414141414-----------x-x-x-x-x----------x-x-x-x-x----------x-x-x-x-x---|
C#||--10---10--x-x-x-x-x---10---10--1010101010--8---8--1212121212--7---7--1010101010--|
G#||--10---10--1212121212--10---10--------------8---8--------------8---8--------------|
C#||--10---10--------------10---10--------------8---8--------------7---7--------------|


Guitar 2 (Right):
D#||-----------------------------------------------------------------------------|
A#||-----------------------------------------------------------------------------|
F#||---------1010101010---------1010101010--------1010101010---------1010101010--|
C#||--0---0--x-x-x-x-x---0---0--x-x-x-x-x---8--8--x-x-x-x-x---7---7--x-x-x-x-x---|
G#||--0---0--8-8-8-8-8---0---0--8-8-8-8-8---8--8--8-8-8-8-8---8---8--8-8-8-8-8---|
C#||--0---0--------------0---0--------------8--8--------------7---7--------------|


D#||--------------------------------------------------------------------------------|
A#||-------------------------------------------------1111111111---------1010101010--|
F#||-----------9-9-9-9-9-----------9-9-9-9-9---------x-x-x-x-x----------x-x-x-x-x---|
C#||--10---10--x-x-x-x-x--10---10--x-x-x-x-x--8---8--8-8-8-8-8---7---7--7-7-7-7-7---|
G#||--10---10--7-7-7-7-7--10---10--7-7-7-7-7--8---8--------------8---8--------------|
C#||--10---10-------------10---10-------------8---8--------------7---7--------------|



Pre-Chorus
Guitar 1:
D#||---------------------------------------|
A#||---------------------------------------|
F#||--3~--------5~--------6~--------10--9--|
C#||--x---------x---------x---------x---x--|
G#||--1~--------3~--------4~--------8---7--|
C#||---------------------------------------|


D#||-------------------------------------------------------|
A#||-------------------------------------------------------|
F#||--3~--------5---------6-6-6-6-6-6-6-6-7-7-7-7-9-9-9-9--|
C#||--x---------x---------7-7-7-7-7-7-7-7-7-7-7-7-7-7-7-7--|
G#||--1~--------3------------------------------------------|
C#||-------------------------------------------------------|


Guitar 2:
D#||---------------------------------------|-----------------------------------------------------|
A#||---------------------------------------|-----------------------------------------------------|
F#||---------------------------------------|----------------------2-2-2-2-2-2-2-2-2-2-2-2-2-2-2--|
C#||--5~---3~---7~---5~---5~--------7---5--|--5~---3~---7~---5~---2-2-2-2-2-2-2-2-2-2-2-2-2-2-2--|
G#||--1~--------3~--------4~--------5---3--|--1~--------3~--------0-0-0-0-0-0-0-0-0-0-0-0-0-0-0--|
C#||---------------------------------------|-----------------------------------------------------|



Chorus
Guitar 1:
D#||---------------------------------------------------------------------------------------------------|
A#||--------------18-18-------17-17-------18-18-------------------18-18-------17-17-------18-18--------|
F#||--------17-17-------17-17-------17-17-------17-17-------17-17-------17-17-------17-17-------17-17--|
C#||--15-15-------------------------------------------14-14--------------------------------------------|
G#||---------------------------------------------------------------------------------------------------|
C#||---------------------------------------------------------------------------------------------------|


D#||---------------------------------------------------------------------------------------------------|
A#||--18-18-18-18-18-18-18-18-17-17-17-17-17-17-17-17-15-15-15-15-15-15-15-15-15-15-15-15-15-15-15-15--|
F#||--17-17-17-17-17-17-17-17-17-17-17-17-17-17-17-17-15-15-15-15-15-15-15-15-15-15-15-15-15-15-15-15--|
C#||---------------------------------------------------------------------------------------------------|
G#||---------------------------------------------------------------------------------------------------|
C#||---------------------------------------------------------------------------------------------------|


D#||---------------------------------------------------------------------------------------------------|
A#||--------------18-18-------17-17-------18-18-------------------18-18-------17-17-------18-18--------|
F#||--------17-17-------17-17-------17-17-------17-17-------17-17-------17-17-------17-17-------17-17--|
C#||--15-15-------------------------------------------14-14--------------------------------------------|
G#||---------------------------------------------------------------------------------------------------|
C#||---------------------------------------------------------------------------------------------------|


D#||---------------------------------------------------------------------------------------------------|
A#||--18~---------------------17~---------------------15-15-15-15-15-15-15-15-15-15-15-15-15-17-17-17--|
F#||--17~---------------------17~---------------------15-15-15-15-15-15-15-15-15-15-15-15-15-15-15-15--|
C#||---------------------------------------------------------------------------------------------------|
G#||---------------------------------------------------------------------------------------------------|
C#||---------------------------------------------------------------------------------------------------|


Guitar 2:
D#||-------------------------------------------------------------------|
A#||-------------------------------------------------------------------|
F#||-------------------------------------------------------------------|
C#||--3-3-3-3-3-3-3-3-3-3-3-3-3-3-3-5-2-2-2-2-2-2-2-2-2-2-2-2-2-2-2-2--|
G#||--3-3-3-3-3-3-3-3-3-3-3-3-3-3-3-5-3-3-3-3-3-3-3-3-3-3-3-3-3-3-3-3--|
C#||--3-3-3-3-3-3-3-3-3-3-3-3-3-3-3-5-2-2-2-2-2-2-2-2-2-2-2-2-2-2-2-2--|


D#||-------------------------------------------------------------------|
A#||-------------------------------------------------------------------|
F#||--7-7-7-7-7-7-7-7-5-5-5-5-5-5-5-5-3-3-3-3-3-3-3-3-3-3-3-3-3-3-3-3--|
C#||--7-7-7-7-7-7-7-7-5-5-5-5-5-5-5-5-3-3-3-3-3-3-3-3-3-3-3-3-3-3-3-3--|
G#||--5-5-5-5-5-5-5-5-3-3-3-3-3-3-3-3-1-1-1-1-1-1-1-1-1-1-1-1-1-1-1-1--|
C#||-------------------------------------------------------------------|


D#||-------------------------------------------------------------------|
A#||-------------------------------------------------------------------|
F#||-------------------------------------------------------------------|
C#||--3-3-3-3-3-3-3-3-3-3-3-3-3-3-3-5-2-2-2-2-2-2-2-2-2-2-2-2-2-2-2-2--|
G#||--3-3-3-3-3-3-3-3-3-3-3-3-3-3-3-5-3-3-3-3-3-3-3-3-3-3-3-3-3-3-3-3--|
C#||--3-3-3-3-3-3-3-3-3-3-3-3-3-3-3-5-2-2-2-2-2-2-2-2-2-2-2-2-2-2-2-2--|


D#||-------------------------------------------------------------------|
A#||-------------------------------------------------------------------|
F#||------------------5~--------------3-3-3-3-3-3-3-3-3-3-3-3-3-3-3-3--|
C#||--0~--------------5~--------------3-3-3-3-3-3-3-3-3-3-3-3-3-3-3-3--|
G#||--0~--------------3~--------------1-1-1-1-1-1-1-1-1-1-1-1-1-1-1-1--|
C#||--0~---------------------------------------------------------------|



Bridge
Guitar 1/2:
D#||---------------------------------------------------------------------|
A#||---------------------------------------------------------------------|
F#||---------------------------------------------------------------------|
C#||--8-8-8-8-8-8-8-8----7-7-7-7-7-7-7-8-8-8-8-8-8-8-8----7-7-7-7-7-7-7--|
G#||--5-5-5-5-5-5-5-5----5-5-5-5-5-5-5-5-5-5-5-5-5-5-5----5-5-5-5-5-5-5--|
C#||--5-5-5-5-5-5-5-5----0-0-0-0-0-0-0-5-5-5-5-5-5-5-5----0-0-0-0-0-0-0--|


D#||---------------------------------------------------------------------|
A#||---------------------------------------------------------------------|
F#||---------------------------------------------------------------------|
C#||--8-8-8-8-8-8-8-8----7-7-7-7-7-7-7-7-7-7-7-7-7-7-7----5-5-5-5-5-5-5--|
G#||--5-5-5-5-5-5-5-5----5-5-5-5-5-5-5-3-3-3-3-3-3-3-3----3-3-3-3-3-3-3--|
C#||--5-5-5-5-5-5-5-5----0-0-0-0-0-0-0-3-3-3-3-3-3-3-3----2-2-2-2-2-2-2--|


Guitar 1:
D#||---------------------------------------------------------------------------------------------------|
A#||--------------15-15----17-------------------------------------15-15----17--------------------------|
F#||--------15-15-------15-------------14-15-14-------------15-15-------15-------------14-15-14--------|
C#||--17-17----------------------12-15----------15-12-17-17----------------------12-15----------15-12--|
G#||---------------------------------------------------------------------------------------------------|
C#||---------------------------------------------------------------------------------------------------|


D#||----------------------------------------------|
A#||--------------15-15----17---------------------|
F#||-----15-15-15-------15------------------------|
C#||--17-------------------------15-15----12-12\--|
G#||----------------------------------------------|
C#||----------------------------------------------|


D#||---------------------------------------------------|
A#||---------------------------------------------------|
F#||--14-14-14-14-14-14-14-14----12-12-12-12-12-12-12--|
C#||---------------------------------------------------|
G#||---------------------------------------------------|
C#||---------------------------------------------------|


Guitar 2:
D#||---------------------------------------------------------------------|
A#||---------------------------------------------------------------------|
F#||---------------------------------------------------------------------|
C#||--8-8-8-8-8-8-8-8----7-7-7-7-7-7-7-8-8-8-8-8-8-8-8----7-7-7-7-7-7-7--|
G#||--5-5-5-5-5-5-5-5----5-5-5-5-5-5-5-5-5-5-5-5-5-5-5----5-5-5-5-5-5-5--|
C#||--5-5-5-5-5-5-5-5----0-0-0-0-0-0-0-5-5-5-5-5-5-5-5----0-0-0-0-0-0-0--|


D#||---------------------------------------------------------------------|
A#||---------------------------------------------------------------------|
F#||---------------------------------------------------------------------|
C#||--8-8-8-8-8-8-8-8----7-7----7-7----7-7-7-7-7-7-7-7----5-5-5-5-5-5-5--|
G#||--5-5-5-5-5-5-5-5----5-5----5-5----3-3-3-3-3-3-3-3----3-3-3-3-3-3-3--|
C#||--5-5-5-5-5-5-5-5----0-0----0-0----3-3-3-3-3-3-3-3----2-2-2-2-2-2-2--|



Pre-Chorus
Guitar 1:
D#||---------------------------------------|
A#||---------------------------------------|
F#||--3~--------5~--------6~--------10--9--|
C#||--x---------x---------x---------x---x--|
G#||--1~--------3~--------4~--------8---7--|
C#||---------------------------------------|


D#||-------------------------------------------------------|
A#||-------------------------------------------------------|
F#||--3~--------5---------6-6-6-6-6-6-6-6-7-7-7-7-9-9-9-9--|
C#||--x---------x---------7-7-7-7-7-7-7-7-7-7-7-7-7-7-7-7--|
G#||--1~--------3------------------------------------------|
C#||-------------------------------------------------------|


D#||-----------------------------------|
A#||-----------------------------------|
F#||--6-6-6-6-6-6-6-6-7-7-7-7-9-9-9-9--|
C#||--7-7-7-7-7-7-7-7-7-7-7-7-7-7-7-7--|
G#||-----------------------------------|
C#||-----------------------------------|


Guitar 2:
D#||---------------------------------------|------------------------------------------------|
A#||---------------------------------------|------------------------------------------------|
F#||---------------------------------------|------------------------------------------------|
C#||--5~---3~---7~---5~---5~--------7---5--|--5~---3~---7~---5~---7~------------------------|
G#||--1~--------3~--------4~--------5---3--|--1~--------3~--------4~------------\\pick-\\---|
C#||---------------------------------------|-------------------------------------\\slide\\--|



Chorus
Guitar 1:
D#||---------------------------------------------------------------------------------------------------|
A#||--------------18-18-------17-17-------18-18-------------------18-18-------17-17-------18-18--------|
F#||--------17-17-------17-17-------17-17-------17-17-------17-17-------17-17-------17-17-------17-17--|
C#||--15-15-------------------------------------------14-14--------------------------------------------|
G#||---------------------------------------------------------------------------------------------------|
C#||---------------------------------------------------------------------------------------------------|


D#||---------------------------------------------------------------------------------------------------|
A#||--18-18-18-18-18-18-18-18-17-17-17-17-17-17-17-17-15-15-15-15-15-15-15-15-15-15-15-15-15-15-15-15--|
F#||--17-17-17-17-17-17-17-17-17-17-17-17-17-17-17-17-15-15-15-15-15-15-15-15-15-15-15-15-15-15-15-15--|
C#||---------------------------------------------------------------------------------------------------|
G#||---------------------------------------------------------------------------------------------------|
C#||---------------------------------------------------------------------------------------------------|


D#||---------------------------------------------------------------------------------------------------|
A#||--------------18-18-------17-17-------18-18-------------------18-18-------17-17-------18-18--------|
F#||--------17-17-------17-17-------17-17-------17-17-------17-17-------17-17-------17-17-------17-17--|
C#||--15-15-------------------------------------------14-14--------------------------------------------|
G#||---------------------------------------------------------------------------------------------------|
C#||---------------------------------------------------------------------------------------------------|


D#||---------------------------------------------------------------------------------------|
A#||--18-18-18-18-18-18-18-18-17-17-17-17-17-17-17-17-15-15-15-15-15-15-15-15-15-15-15-15--|
F#||--17-17-17-17-17-17-17-17-17-17-17-17-17-17-17-17-15-15-15-15-15-15-15-15-15-15-15-15--|
C#||---------------------------------------------------------------------------------------|
G#||---------------------------------------------------------------------------------------|
C#||---------------------------------------------------------------------------------------|


D#||----------------|
A#||--15---15-------|
F#||--15---15---15--|
C#||------------15--|
G#||----------------|
C#||----------------|


Guitar 2:
D#||-------------------------------------------------------------------|
A#||-------------------------------------------------------------------|
F#||-------------------------------------------------------------------|
C#||--3-3-3-3-3-3-3-3-3-3-3-3-3-3-3-5-2-2-2-2-2-2-2-2-2-2-2-2-2-2-2-2--|
G#||--3-3-3-3-3-3-3-3-3-3-3-3-3-3-3-5-3-3-3-3-3-3-3-3-3-3-3-3-3-3-3-3--|
C#||--3-3-3-3-3-3-3-3-3-3-3-3-3-3-3-5-2-2-2-2-2-2-2-2-2-2-2-2-2-2-2-2--|


D#||-------------------------------------------------------------------|
A#||-------------------------------------------------------------------|
F#||--7-7-7-7-7-7-7-7-5-5-5-5-5-5-5-5-3-3-3-3-3-3-3-3-3-3-3-3-3-3-3-3--|
C#||--7-7-7-7-7-7-7-7-5-5-5-5-5-5-5-5-3-3-3-3-3-3-3-3-3-3-3-3-3-3-3-3--|
G#||--5-5-5-5-5-5-5-5-3-3-3-3-3-3-3-3-1-1-1-1-1-1-1-1-1-1-1-1-1-1-1-1--|
C#||-------------------------------------------------------------------|


D#||-------------------------------------------------------------------|
A#||-------------------------------------------------------------------|
F#||-------------------------------------------------------------------|
C#||--3-3-3-3-3-3-3-3-3-3-3-3-3-3-3-5-2-2-2-2-2-2-2-2-2-2-2-2-2-2-2-2--|
G#||--3-3-3-3-3-3-3-3-3-3-3-3-3-3-3-5-3-3-3-3-3-3-3-3-3-3-3-3-3-3-3-3--|
C#||--3-3-3-3-3-3-3-3-3-3-3-3-3-3-3-5-2-2-2-2-2-2-2-2-2-2-2-2-2-2-2-2--|


D#||-------------------------------------------------------------------------|
A#||-------------------------------------------------------------------------|
F#||--7-7-7-7-7-7-7-7-5-5-5-5-5-5-5-5-3-3-3-3-3-3-3-3-3-3-3-3-3---3---3---5--|
C#||--7-7-7-7-7-7-7-7-5-5-5-5-5-5-5-5-3-3-3-3-3-3-3-3-3-3-3-3-3---3---3---5--|
G#||--5-5-5-5-5-5-5-5-3-3-3-3-3-3-3-3-1-1-1-1-1-1-1-1-1-1-1-1-1---1---1---3--|
C#||-------------------------------------------------------------------------|



Outro
Guitar 1:
D#||---------------------------------------------------------------------------------------------------|
A#||--------------18-18-------17-17-------18-18-------------------18-18-------17-17-------18-18--------|
F#||--------17-17-------17-17-------17-17-------17-17-------17-17-------17-17-------17-17-------17-17--|
C#||--15-15-------------------------------------------14-14--------------------------------------------|
G#||---------------------------------------------------------------------------------------------------|
C#||---------------------------------------------------------------------------------------------------|


D#||---------------------------------------------------------------------------------------------------|
A#||--18-18-18-18-18-18-18-18-17-17-17-17-17-17-17-17-15-15-15-15-15-15-15-15-15-15-15-15-15-15-15-15--|
F#||--17-17-17-17-17-17-17-17-17-17-17-17-17-17-17-17-15-15-15-15-15-15-15-15-15-15-15-15-15-15-15-15--|
C#||---------------------------------------------------------------------------------------------------|
G#||---------------------------------------------------------------------------------------------------|
C#||---------------------------------------------------------------------------------------------------|


D#||---------------------------------------------------------------------------------------------------|
A#||--------------18-18-------17-17-------18-18-------------------18-18-------17-17-------18-18--------|
F#||--------17-17-------17-17-------17-17-------17-17-------17-17-------17-17-------17-17-------17-17--|
C#||--15-15-------------------------------------------14-14--------------------------------------------|
G#||---------------------------------------------------------------------------------------------------|
C#||---------------------------------------------------------------------------------------------------|


D#||-------------------------------------------------------|
A#||--18~---------------------17~---------------------15~--|
F#||--17~---------------------17~---------------------15~--|
C#||-------------------------------------------------------|
G#||-------------------------------------------------------|
C#||-------------------------------------------------------|


Guitar 2:
D#||-------------------------------------------------------------------|
A#||-------------------------------------------------------------------|
F#||-------------------------------------------------------------------|
C#||--3-3-3-3-3-3-3-3-3-3-3-3-3-3-3-5-2-2-2-2-2-2-2-2-2-2-2-2-2-2-2-2--|
G#||--3-3-3-3-3-3-3-3-3-3-3-3-3-3-3-5-3-3-3-3-3-3-3-3-3-3-3-3-3-3-3-3--|
C#||--3-3-3-3-3-3-3-3-3-3-3-3-3-3-3-5-2-2-2-2-2-2-2-2-2-2-2-2-2-2-2-2--|


D#||-------------------------------------------------------------------|
A#||-------------------------------------------------------------------|
F#||--7-7-7-7-7-7-7-7-5-5-5-5-5-5-5-5-3-3-3-3-3-3-3-3-3-3-3-3-3-3-3-3--|
C#||--7-7-7-7-7-7-7-7-5-5-5-5-5-5-5-5-3-3-3-3-3-3-3-3-3-3-3-3-3-3-3-3--|
G#||--5-5-5-5-5-5-5-5-3-3-3-3-3-3-3-3-1-1-1-1-1-1-1-1-1-1-1-1-1-1-1-1--|
C#||-------------------------------------------------------------------|


D#||-------------------------------------------------------------------|
A#||-------------------------------------------------------------------|
F#||-------------------------------------------------------------------|
C#||--3-3-3-3-3-3-3-3-3-3-3-3-3-3-3-5-2-2-2-2-2-2-2-2-2-2-2-2-2-2-2-2--|
G#||--3-3-3-3-3-3-3-3-3-3-3-3-3-3-3-5-3-3-3-3-3-3-3-3-3-3-3-3-3-3-3-3--|
C#||--3-3-3-3-3-3-3-3-3-3-3-3-3-3-3-5-2-2-2-2-2-2-2-2-2-2-2-2-2-2-2-2--|


D#||--------------------------------------|
A#||--------------------------------------|
F#||------------------5~--------------3~--|
C#||--0~--------------5~--------------3~--|
G#||--0~--------------3~--------------1~--|
C#||--0~----------------------------------|




Tablature Legend
----------------
 h   hammer-on
 p   pull-off
 b   bend
 pb  pre-bend
 r   release bend
 ~   hold / vibrato
 .   palm mute
 /   slide up
 \   slide down
 *   pinch harmonic
 '   natural harmonic
 x   mute note
 T   tap

            
            
Suggest correction
Creating personal tab
Creating personal tab
You can edit any tab online and save it as your Personal.

You can edit, replace or remove any tab part or add personal notes – all changes will be seen only by you.

Personal tabs can be accessed anytime from any device, even offline.
Learn more »
Give kudos to tab author, rate the tab!
1 2 3 4 5
comments
print report bad tab
guest
You may want to rate the tab now too:
select rating
Wanna post a correction for this tab? Suggest correction