Oops, an error
Loading. Please wait.

Last Days Of Summer Bass Tab

version 1
version 1

Whole song

Interactive

459 views 1 this week
2 commentsread comments
1 2 3 4 5
please rate
add to favorites
launch autoscroll
font size
0
reset
guitar tuner
Tab Pro tools
  • play this tab
  • loop segment
  • change instrument
  • show fretboard
  • metronome
×
Best way to learn
"Last Days Of Summer"
Autoscroll
slow
fast
+/-
esc
set tempo
stop
Contributor
++++++++++++++++++++++++++++++++++++
| Silverstein- Last Days Of Summer |
++++++++++++++++++++++++++++++++++++

Tuning: EADG

Intro
1.
G|----------------------------------------------------------|
D|----------------------------------------------------------|
A|-0~----0-0~-------------------0~----0-0~------------------|
D|---------------0~----0-0~-------------------0~----0-0~----|

Verse
"The bright light beams..."
2.
G|----------------------------------------------------------|
D|----------------------------------------------------------|
A|-0~----0-0~-------------------0~----0-0~------------------|
D|---------------0~----0-0~-------------------0~----0-0~----|

Pre-Chorus
"Or a broken heart..."
3.
G|----------------------------------------------------------|
D|-2~----2-2~---------------0~--2~----2-2~---------------0~-|
A|---------------3~----3-3~-------------------3~----3-3~----|--x2
D|----------------------------------------------------------|

Chorus
"I won't leave.."
4.
G|-----------------------------------------|
D|-----------2222-2222-----------2222-4444-|
A|-3333-5555-----------3333-5555-----------|
E|-----------------------------------------|

"I won't leave this way.."
5.
G|------------------------|
D|-----------2222-4444-5~-|
A|-3333-5555--------------|
E|------------------------|

Verse
"As my legs..."
6.
G|----------------------------------------------------------|
D|-2~----2-2~---------------0~--2~----2-2~---------------0~-|
A|---------------3~----3-3~-------------------3~----3-3~----|--x2
D|----------------------------------------------------------|

Chorus
"I won't leave.."
7.
G|-----------------------------------------|
D|-----------2222-2222-----------2222-4444-|
A|-3333-5555-----------3333-5555-----------|
E|-----------------------------------------|

"I won't leave this way.."
8.
G|------------------------|
D|-----------2222-4444-5~-|
A|-3333-5555--------------|
E|------------------------|

Bridge
"You! That I loved..."
9.
G|--------------------|
D|--------------------|
A|-3-3333-3-3333-3-33-|
D|--------------------|

10.
G|----------------------------------------|
D|-22222x----00000x-----------------------|
A|---------------------3-3333-3-3333-3-33-|--x2
D|----------------------------------------|

11.
G|-----------------------------------------------------------|
D|-22222x----00000x------------------------------------------|
A|---------------------3-3333-3-3333-3-33-3-3333-3-3333-3-33-|
D|-----------------------------------------------------------|

12.
G|-------------------------------------------|
D|-------------------------------------------|   
A|----------------------33x----33x----55x----|--x6  
E|-00x----00x----00x-------------------------|

13.
G|--------------------------------|
D|--------------------------------|
A|-------------------3~-33-3~-3-3-|--x4
D|-00000000-00000000--------------|

14.
G|-------------------------------------------------------------------------|
D|-22222222-22222222-------------------22222222-22222222-------------------|
A|-------------------33333333-33335555-------------------33333333-33335555-|--x2
D|-------------------------------------------------------------------------|

15.
G|----------------------------------------------------------------------------|
D|-22222222-22222222-------------------22222222-22222222----------------------|
A|-------------------33333333-33335555-------------------3-333-3~-3-333-3~----|
D|-------------------------------------------------------------------------0~-|

Lyrics:

The bright light beams From her eyes
Like broken glass. Or a broken heart,
Who would have guessed?
You'd leave me here.
Beneath my eyes I feel the tears, I hold back.

I won't leave this way again.

As my legs They start to shake,
I feel nothing. I wanted you, (I wanted you!)
I needed you, But you weren't there for me this time. (There for me!)

You that I loved! That I needed!
You weren't there.Not this time! You!

What can I do?! I was supposed to love you!
What can I say?! 

I won't leave, What can I do?!
I was supposed to help you!
I cannot feel you!

Last breath I feel! Warm air intake!
Last summer's day! Last one I take!
For you!

I won't leave! Leave this way!
I won't leave Lost it all!
All for you! I won't leave.

When the shadows beam! Misery remains!
I won't leave this time.

+++++++++++++++++++++++++++++++++
| RaiLeff                       |
| Underground__Dora@hotmail.com |
+++++++++++++++++++++++++++++++++
comments
We did not receive enough feedback on this tab! Please rate:
print report bad tab
1 2 3 4 5
2 comments total.
0 reply
RaiLeff wrote on May 15 2007, 09:33 pm

Hey this tab is in EADG (standard tuning)
I dontknow why I wrote DADG on the tabs lol

0 reply
carrotcake wrote on June 6 2007, 10:06 pm

haha it does say
G|
D|
A|
D|
on some of the measures, it's still a pretty good tab, 5*

I want to post or [tab]
guest
You may want to rate the tab now too:
select rating
Please do not post tabs as comments. Select "correction" instead!