Oops, an error
Loading. Please wait.

Last Days Of Summer Tab

version 1
version 1

Whole song

Interactive

2,550 views 3 this week
2 commentsread comments
1 2 3 4 5
accurate
x 4
add to favorites
launch autoscroll
font size
0
reset
how to read this tab
guitar tuner
Autoscroll
slow
fast
+/-
esc
set tempo
stop
Help us to improve Ultimate-Guitar.com Take our survey!
×
Author
++++++++++++++++++++++++++++++++++++
| Silverstein- Last Days Of Summer |
++++++++++++++++++++++++++++++++++++

EADGBe

Intro
Guitar 1
1.
e|-----------------------------------------------|
B|-----9-----9-----9---------9-----9-----9-------|
G|-------9-----9-----9---------9-----9-----9-----|
D|---------7-----7-----7-------------------------|
A|-0~----------------------------7-----7-----7---|--x4
E|-----------------------0~----------------------|

Guitar 2 Play through first verse both of these
2.
e|--------------------------------------------------|
B|--------------------------------------------------|
G|-9-999-9-999-9-999-9-999-9-999-9-999-9-999-9-999--|
D|-7-777-7-777-7-777-7-777-9-999-9-999-9-999-9-999--|
A|-------------------------7-777-7-777-7-777-7-777--|--x4
E|--------------------------------------------------|

Guitar 1
"Or a broken heart..."
3.
e|-333-222-555-222-333-222-555-333-333-222-555-222-333-222-555-333--|
B|------------------------------------------------------------------|
G|------------------------------------------------------------------|
D|------------------------------------------------------------------|
A|------------------------------------------------------------------|--x2
E|------------------------------------------------------------------|

Guitar 2
"Or a broken heart..."
4.
e|-------------------------8-888-8-888-8-888-8-888--|
B|-8-888-8-888-8-888-8-888-8-888-8-888-8-888-8-888--|
G|-7-777-7-777-7-777-7-777-5-555-5-555-5-555-5-555--|
D|-5-555-5-555-5-555-5-555--------------------------|
A|--------------------------------------------------|--x4
E|--------------------------------------------------|

Chorus
Guitar 1
"I wont leave!!"
5.
e|-----------------------------------------------------------------------------------------|
B|-----------------------------------------------------------------------------------------|
G|-----------------------------------------------------------------------------------------|
D|--------000000-222222-222222--------000000-222222-444444--------000000-222222-444444-5~--|
A|-333333----------------------333333----------------------333333--------------------------|
E|-----------------------------------------------------------------------------------------|

Guitar 2
6.
e|-----------------------------------------------------------------------------------------|
B|--------333333-555555-555555--------333333-555555-777777--------333333-555555-777777-8~--|
G|-555555-222222-444444-444444-555555-222222-444444-666666-555555-222222-444444-666666-7~--|
D|-555555-000000-222222-222222-555555-000000-222222-444444-555555-000000-222222-444444-5~--|
A|-333333----------------------333333----------------------333333--------------------------|
E|-----------------------------------------------------------------------------------------|

Verse
Guitar 1
"As my legs..."
7.
e|-333-222-555-222-333-222-555-333-333-222-555-222-333-222-555-333--|
B|------------------------------------------------------------------|
G|------------------------------------------------------------------|
D|------------------------------------------------------------------|
A|------------------------------------------------------------------|--x2
E|------------------------------------------------------------------|

Guitar 2
8.
e|-------------------------8-888-8-888-8-888-8-888--|
B|-8-888-8-888-8-888-8-888-8-888-8-888-8-888-8-888--|
G|-7-777-7-777-7-777-7-777-5-555-5-555-5-555-5-555--|
D|-5-555-5-555-5-555-5-555--------------------------|
A|--------------------------------------------------|--x4
E|--------------------------------------------------|

Chorus
Guitar 1
"I wont leave!!"
9.
e|-----------------------------------------------------------------------------------------|
B|-----------------------------------------------------------------------------------------|
G|-----------------------------------------------------------------------------------------|
D|--------000000-222222-222222--------000000-222222-444444--------000000-222222-444444-5~--|
A|-333333----------------------333333----------------------333333--------------------------|
E|-----------------------------------------------------------------------------------------|

Guitar 2
10.
e|-----------------------------------------------------------------------------------------|
B|--------333333-555555-555555--------333333-555555-777777--------333333-555555-777777-8~--|
G|-555555-222222-444444-444444-555555-222222-444444-666666-555555-222222-444444-666666-7~--|
D|-555555-000000-222222-222222-555555-000000-222222-444444-555555-000000-222222-444444-5~--|
A|-333333----------------------333333----------------------333333--------------------------|
E|-----------------------------------------------------------------------------------------|

Bridge
Guitar 1
11.
e|---------------------------------------|
B|---------------------------------------|        As you know, guitar 2 joins a little bit after
G|-99999x----77777x----5-5555-5-5555-55--|         but both play the same thing later (12)
D|-99999x----77777x----5-5555-5-5555-55--|
A|-77777x----55555x----3-3333-3-3333-33--|--x3
E|---------------------------------------|

12.
e|--------------------------------------------------------|
B|--------------------------------------------------------|
G|-99999x----77777x----5-5555-5-5555-55-5-5555-5-5555-55--|
D|-99999x----77777x----5-5555-5-5555-55-5-5555-5-5555-55--|
A|-77777x----55555x----3-3333-3-3333-33-3-3333-3-3333-33--|
E|--------------------------------------------------------|

2:15
Guitar 1
13.
e|--------------------------------------|
B|--------------------------------------|
G|-------------------55x---55x---7-7----|
D|-22x---22x---22x---55x---55x-------9--|
A|-22x---22x---22x---33x---33x----------|--x2
E|-00x---00x---00x----------------------|

14.
e|----------------------------------------------------|
B|----------------------------------------------------|
G|----------------------------------------------------|
D|----5p4h5----5p4h5----4h5---------------------------|
A|--------------------------33-3p2h3-33-3p2h3-33-2h5--|--x4
E|-00-------00-------00-------------------------------|

Guitar 2
15.
e|------------------------------------|
B|------------------------------------|
G|-------------------55x---55x---77x--|
D|-22x---22x---22x---55x---55x---77x--|
A|-22x---22x---22x---33x---33x---55x--|--x6
E|-00x---00x---00x--------------------|

2:42
Guitar 1
16.
e|---------------------------------------------------|
B|---------------------------------------------------|
G|---------------------------------5-5555-5-5555-55--|
D|-5-5-5-5-5-5-5-5-4-4-4-4-4-4-4-4-5-5555-5-5555-55--|
A|---------------------------------3-3333-3-3333-33--|--x4
E|---------------------------------------------------|

Guitar 2
17.
e|---------------------------------------------------|
B|---------------------------------------------------|
G|---------------------------------5-5555-5-5555-57--|
D|-2-2-2-2-2-2-2-2-2-2-2-2-2-2-2-2-5-5555-5-5555-57--|
A|-2-2-2-2-2-2-2-2-2-2-2-2-2-2-2-2-3-3333-3-3333-35--|--x4
E|-0-0-0-0-0-0-0-0-0-0-0-0-0-0-0-0-------------------|

3:01
Guitar 2
18.
e|---------------------------------------|
B|---------------------------------------|
G|-99999999-99999999-55555555-5555-7777--| For like a million times
D|-99999999-99999999-55555555-5555-7777--|
A|-77777777-77777777-33333333-3333-5555--|
E|---------------------------------------|

And these are the few last things Guitar 1 does:

Guitar 1
19.
e|-3333-5555-7777-7777-----------------------7777-5555-3333-3333-----------------------|
B|-------------------------------------------------------------------------------------|
G|----------------------5555-5555-5555-5777-----------------------5555-5555-5555-5777--|
D|-------------------------------------------------------------------------------------|
A|-------------------------------------------------------------------------------------|
E|-------------------------------------------------------------------------------------|

20.
e|-7777-5555-3333-3333--7777-5555-3333-3333--7777-5555-3333-2222-----------------------|
B|-------------------------------------------------------------------------------------|
G|----------------------------------------------------------------5555-5555-5555-5777--|
D|-------------------------------------------------------------------------------------|
A|-------------------------------------------------------------------------------------|
E|-------------------------------------------------------------------------------------|

21.
e|-7777-5555-3333-3333-7777-5555-3333-3333-------------------------------------------------------|
B|-----------------------------------------------------------------------------------------------|
G|-------------------------------------------------------------5-5555-5-5555-55-5-5555-5-5555-55-|
D|-----------------------------------------5555-4444-2222-0000-5-5555-5-5555-55-5-5555-5-5555-55-|
A|-------------------------------------------------------------3-3333-3-3333-33-3-3333-3-3333-33-|
E|-----------------------------------------------------------------------------------------------|

22.
e|-----|
B|-----|
G|-----|
D|-2~--|
A|-2~--|
E|-0~--|

Lyrics:

The bright light beams From her eyes
Like broken glass. Or a broken heart,
Who would have guessed?
You'd leave me here.
Beneath my eyes I feel the tears, I hold back.

I won't leave this way again.

As my legs They start to shake,
I feel nothing. I wanted you, (I wanted you!)
I needed you, But you weren't there for me this time. (There for me!)

You that I loved! That I needed!
You weren't there. Not this time! You!
What can I do?! I was supposed to love you!
What can I say?! 
I won't leave, What can I do?!
I was supposed to help you!
I cannot feel you!
Last breath I feel! Warm air intake!
Last summer's day! Last one I take!
For you!
I won't leave! Leave this way!
I won't leave Lost it all!
All for you! I won't leave.
When the shadows beam! Misery remains!
I won't leave this time.

+++++++++++++++++++++++++++++++++
| RaiLeff                       |
| Underground__Dora@Hotmail.Com |
+++++++++++++++++++++++++++++++++
Suggest correction
comments
print report bad tab
2 comments total.
0 reply
SensesFail_dude 194 wrote on November 12 2007, 03:28 pm

e|-----------------------------------------------|
B|-----9-----9-----9---------9-----9-----9-------|
G|-------9-----9
-----9---------8-----8-----8-----|
D|---------7-----7-----7-------------------------|
A|-0~---------------------------
-7-----7-----7---|--x4
E|-----------------------0~----------------------|

0 reply
SensesFail_dude 194 wrote on November 12 2007, 03:29 pm


e|-----------------------------------------------|
B|-----9-----9-----9---------9-----9-----9-------|
G|-------9----
-9-----9---------8-----8-----8-----|
D|---------7-----7-----7-------------------------|
A|-0~-------------------------
--7-----7-----7----|
E|-----------------------0~----------------------|

guest
You may want to rate the tab now too:
select rating
Wanna post a correction for this tab? Suggest correction