Oops, an error
Loading. Please wait.

Last Days Of Summer Bass Tab

version 2
version 2

Whole song

Interactive

209 views 1 this week
2 commentsread comments
1 2 3 4 5
2 more votes to show rating
add to favorites
launch autoscroll
font size
0
reset
guitar tuner
Autoscroll
slow
fast
+/-
esc
set tempo
stop
Help us to improve Ultimate-Guitar.com Take our survey!
×
Author
Difficulty
novice
Tuning: Standard

-----------------------------------------
Updated: 5/03/07                       
I changed the verse, chorus, and bridge.
-----------------------------------------
Updated: 6/29/07
I cleaned it up a bit.
-----------------------------------------

Intro
|----------------------------|
|----------------------------|
|----------------------------|
|-5~-----5-5~-----0~----0-0~-|x4

Verse
|-------------------------------|
|-------------------------------|
|-7~----7-9~-10~--3~----3-3~-5~-|
|-------------------------------|x4

Chorus
|---------------------------------------------------------|
|---------------5-5555-5-5555-5-5555----------------------|
|-7-7777-9-9999----------------------5-5555-7-7777-9-9999-|
|---------------------------------------------------------|

|----------------------------------------|
|---------------5-5555-7-7777-5~----5-5~-|
|-7-7777-9-9999--------------------------|
|----------------------------------------|

Verse
|-------------------------------|
|-------------------------------|
|-7~----7-9~-10~--3~----3-3~-5~-|
|-------------------------------|x4

Chorus
|---------------------------------------------------------|
|---------------5-5555-5-5555-5-5555----------------------|
|-7-7777-9-9999----------------------5-5555-7-7777-9-9999-|
|---------------------------------------------------------|

|----------------------------------------|
|---------------5-5555-7-7777-5~----5-5~-|
|-7-7777-9-9999--------------------------|
|----------------------------------------|

Pre-Bridge
|----------------------|
|----------------------|
|-3---33----3---33-333-|
|----------------------|

|---------------------------------------|
|---------------------------------------|
|-777777x-555555x---3---33---3---33-333-|
|---------------------------------------|x3

|----------------------|
|----------------------|
|-3---33----3---33-333-|
|----------------------|

Bridge
|-----------------------------------------|
|-----------------------------------------|
|----------------------33x------33x---55x-|
|-00x------00x---00x----------------------|x6

|-----------------------------------------|
|-----------------------------------------| 
|-777777777777777777777777--3----3----333-|
|-----------------------------------------|x4

|---------------------------------------------------|
|---------------------------------------------------|
|-777777777777777777777777-333333333333333333333333-|
|---------------------------------------------------|
                                                       x3
|--------------------------|---------------------|
|--------------------------|---------------------|
|-777777777777777777777777-|-3---333--3--33--555-|
|--------------------------|---------------------|
                           ^on the 3rd time stop here and go to the outro

Outro
|-------------------|
|-------------------|
|-3--333--3--33-333-|
|-------------------|x2

End on
|-------------------|
|-------------------|
|-7~~---------------|
|-------------------|
Suggest correction
Give kudos to tab author, rate the tab!
1 2 3 4 5
comments
print report bad tab
2 comments total.
0 reply
RaiLeff 12,922 May 27, 2007 06:58 PM

Yeah I think this is correct but in the chorus
you're playing it one octave higher :O

0 reply
RaiLeff 12,922 May 27, 2007 06:59 PM

Nevermind one octave higher...
Its whole dif notes but sound right ;)

guest
You may want to rate the tab now too:
select rating
Wanna post a correction for this tab? Suggest correction