Oops, an error
Loading. Please wait.

Last Days Of Summer Tab

version 2
version 2

Whole song

Interactive

2,338 views 1 this week
1 commentread comment
1 2 3 4 5
excellent!
x 3
add to favorites
launch autoscroll
font size
0
reset
how to read this tab
guitar tuner
Autoscroll
slow
fast
+/-
esc
set tempo
stop
Help us to improve Ultimate-Guitar.com Take our survey!
×
Difficulty
novice
Song: Last Days Of Summer
Artist: Silverstein
Album: When Broken Is Easily Fixed
Tuning: Standard (EADGBe)

This is one of the guitars, im not entirely sure on the guitar
playing behind this, but other than that, its about 100% correct.

------------------
. Palm Mute      |
x Mute Note      |
/ slide forwards |
\ slide backwards|    
------------------
Intro
0:00-0:34
e|----------------------------|
B|--9--9--9-------9--9--9-----|
G|---9--9--9-------8--8--8----|4x's
D|----7--7--7-----------------|
A|-0-----------------7--7--7--|
E|--------------0-------------|


Verse
0:34-1:08
e|-333-222-555-222-333-222-555-333-|
B|---------------------------------|
G|---------------------------------|
D|---------------------------------|
A|---------------------------------|4x's
E|---------------------------------|

Chorus
1:08-1:25
e|---------------------------------------------------------------------|
B|---------------------------------------------------------------------|
G|-5-5-5-5-7-7-7-7-9-9-9-9-9-9-9--5-5-5-5-7-7-7-7-9-9-9-9--11-11-11-11-|
D|-x-x-x-x-x-x-x-x-x-x-x-x-x-x-x--x-x-x-x-x-x-x-x-x-x-x-x--x--x--x--x--|
A|-3-3-3-3-5-5-5-5-7-7-7-7-7-7-7--3-3-3-3-5-5-5-5-7-7-7-7--9--9--9--9--|
E|---------------------------------------------------------------------|

e|------------------------------------------|
B|------------------------------------------|
G|-5-5-5-5-7-7-7-7-9-9-9-9--11-11-11-11-12--|
D|-x-x-x-x-x-x-x-x-x-x-x-x--x--x--x--x--x---|
A|-3-3-3-3-5-5-5-5-7-7-7-7--9--9--9--9--10--|
E|------------------------------------------|

Verse
1:25-1:58
e|-333-222-555-222-333-222-555-333-|
B|---------------------------------|
G|---------------------------------|
D|---------------------------------|
A|---------------------------------|4x's
E|---------------------------------|

Chorus
1:58-2:16
e|----------------------------------------------------------------------|
B|----------------------------------------------------------------------|
G|-5-5-5-5-7-7-7-7-9-9-9-9-9-9-9--5-5-5-5-7-7-7-7-9-9-9-9--11-11-11-11--|
D|-x-x-x-x-x-x-x-x-x-x-x-x-x-x-x--x-x-x-x-x-x-x-x-x-x-x-x--x--x--x--x---|
A|-3-3-3-3-5-5-5-5-7-7-7-7-7-7-7--3-3-3-3-5-5-5-5-7-7-7-7--9--9--9--9---|
E|----------------------------------------------------------------------|

e|------------------------------------------|
B|------------------------------------------|
G|-5-5-5-5-7-7-7-7-9-9-9-9--11-11-11-11-12--|
D|-x-x-x-x-x-x-x-x-x-x-x-x--x--x--x--x--x---|
A|-3-3-3-3-5-5-5-5-7-7-7-7--9--9--9--9--10--|
E|------------------------------------------|

Breakdown
2:16-3:38
e|-------------------------|
B|-------------------------|
G|-99999-77777-5-555-5-555-|
D|-xxxxx-xxxxx-x-xxx-x-xxx-|4x's
A|-77777-55555-3-333-3-333-|
E|-------------------------|

e|-----------------------|
B|----------------3-3----|
G|--------------------4--|2x's
D|----------55-55--------|
A|-22-22-22-33-33--------|
E|-00-00-00--------------|

e|--------------------------------------------------------------|
B|--------------------------------------------------------------|
G|----12\11/12-----12\11/12----11/1-----5\4/5----5\4/5----5/7---|
D|----x--x--x------x--x--x-----x--x-----x-x-x----x-x-x----x-x---|4x's
A|----10\9/10------10\9/10-----9/10-----3\2/3----3\2/3----3/5---|
E|-00-----------00----------00-------00-------00-------00-------|
   ..           ..          ..       ..       ..       ..

e|----------------------------------------------------------------------|
B|----------------------------------------------------------------------|
G|-12-12-12-12-12-12-12-12--11-11-11-11-11-11-11-11--5--5555-5-5555-55--|
D|-x--x--x--x--x--x--x--x---x--x--x--x--x--x--x--x---x--xxxx-x-xxxx-xx--|4x's
A|-10-10-10-10-10-10-10-10--9--9--9--9--9--9--9--9---3--3333-3-3333-33--|
E|----------------------------------------------------------------------|

Outro
3:38-4:30
e|------------------------------------------------------------------|
B|------------------------------------------------------------------|
G|-12-12-12-12-14-14-14-14-14-16-16-16-16-16--5-5555-5-5555-55/7-7--|
D|-x--x--x--x--x--x--x--x--x--x--x--x--x--x---x-xxxx-x-xxxx-xx/x-x--|
A|-10-10-10-10-12-12-12-12-12-14-14-14-14-14--3-3333-3-3333-33/5-5--|
E|------------------------------------------------------------------|


e|------------------------------------------------------------------|
B|------------------------------------------------------------------|
G|-16-16-16-16-14-14-14-14-12-12-12-12-12-12--5-5555-5-5555-55/7-7--|
D|-x--x--x--x--x--x--x--x--x--x--x--x--x--x---x-xxxx-x-xxxx-xx/x-x--|
A|-14-14-14-14-12-12-12-12-10-10-10-10-10-10--3-3333-3-3333-33/5-5--|
E|------------------------------------------------------------------|

e|--------------------------------------------|
B|--------------------------------------------|
G|-16-16-16-16-14-14-14-12-12-12-12-12-12-12--|
D|-x--x--x--x--x--x--x--x--x--x--x--x--x--x---|2x's
A|-14-14-14-14-12-12-12-12-10-10-10-10-10-10--|
E|--------------------------------------------|

e|------------------------------------------------------------------|
B|------------------------------------------------------------------|
G|-16-16-16-16-14-14-14-14-12-12-12-12-12-12--5-5555-5-5555-55/7-7--|
D|-x--x--x--x--x--x--x--x--x--x--x--x--x--x---x-xxxx-x-xxxx-xx/x-x--|
A|-14-14-14-14-12-12-12-12-10-10-10-10-10-10--3-3333-3-3333-33/5-5--|
E|------------------------------------------------------------------|

e|--------------------------------------------|
B|--------------------------------------------|
G|-16-16-16-16-14-14-14-12-12-12-12-12-12-12--|
D|-x--x--x--x--x--x--x--x--x--x--x--x--x--x---|2x's
A|-14-14-14-14-12-12-12-12-10-10-10-10-10-10--|
E|--------------------------------------------|

e|------------------------------------------------------------------|
B|------------------------------------------------------------------|
G|-16-16-16-16-14-14-14-14-12-12-12-12-12-12--5-5555-5-5555-55/7-7--|
D|-x--x--x--x--x--x--x--x--x--x--x--x--x--x---x-xxxx-x-xxxx-xx/x-x--|
A|-14-14-14-14-12-12-12-12-10-10-10-10-10-10--3-3333-3-3333-33/5-5--|
E|------------------------------------------------------------------|

e|----------------------------------------------------------------------|
B|----------------------------------------------------------------------|
G|-12-12-12-12-12-12-12-12--11-11-11-11-11-11-11-11--5--5555-5-5555-55--|
D|-x--x--x--x--x--x--x--x---x--x--x--x--x--x--x--x---x--xxxx-x-xxxx-xx--|
A|-10-10-10-10-10-10-10-10--9--9--9--9--9--9--9--9---3--3333-3-3333-33--|
E|----------------------------------------------------------------------|

e|-----|
B|-----|
G|-----|
D|--2--|end on this
A|--2--|
E|--0--|
Suggest correction
Give kudos to tab author, rate the tab!
1 2 3 4 5
comments
print report bad tab
1 comment total.
0 reply
SensesFail_dude 194 wrote on June 28 2008, 12:12 am

shit...im the one who actually tabbed this, i just wasnt signed in when i submitted it. please rate =]

guest
You may want to rate the tab now too:
select rating
Please do not post tabs as comments. Select "correction" instead!