Oops, an error
Loading. Please wait.

Last Looks tab

100 views 3 this week
no commentswrite comment
1 2 3 4 5
2 more votes to show rating
add to favorites
×
Save as Personal and add changes to this tab that will be seen only by you. Learn more ›
×
You can save this tab as Personal to edit and correct it or add notes. All changes will be seen only by you. Learn more »
launch autoscroll
font size
0
reset
how to read this tab
guitar tuner
edit
Autoscroll
slow
fast
+/-
esc
set tempo
stop
Tabbed by: Joshua Garcia (joshuag523@aol.com)
 
Tabs for the song: Last Looks by Silverstein
Please rate and let me know if you have any corrections. Thank you.
 

Tuning: Custom Tuning (B A D G B E)
As stated here: https://youtu.be/sy80RQwg0-A?t=4m11s
 
 
[Intro]
Guitar 1:
           T          T          T          T          T
E||-------------------------------------------------------------------|
B||-------------------------------------------------------------------|
G||-------------------------------------------------------------------|
D||-------------------------------------------------------------------| [x4]
A||-------------------------------------------------------4--4--4--4--|
B||--3h6p0-14p0-3h6p0-14p0-3h6p0-14p0-3h6p0-14p0-3h6p0-14-2--2--2--2--|


Guitar 2:
E||-------------------------------------------------------------------|
B||-------------------------------------------------------------------|
G||-------------------------------------------------------6--6--6--6--|
D||-------------------------------------------------------x--x--x--x--|
A||-------------------------------------------------------4--4--4--4--|
B||-------------------------------------------------------------------|


E||-------------------------------------------------------------------|
B||-------------------------------------------------------------------|
G||-------------------------------------------------------6--6--6--6--|
D||-------------------------------------------------------x--x--x--x--|
A||-------------------------------------------------------4--4--4--4--|
B||-------------------------------------------------------------------|


E||-------------------------------------------------------------------|
B||-------------------------------------------------------------------|
G||-------------------------------------------------------6--6--6--6--|
D||-------------------------------------------------------x--x--x--x--|
A||-------------------------------------------------------4--4--4--4--|
B||--5'\'\'\'\'\'\'\'\'\'\'\'\'\'\'\'\'\'\'\'\'\'\'\'\----------------|


E||-------------------------------------------------------------------|
B||-------------------------------------------------------------------|
G||-------------------------------------------------------6--6--6--6--|
D||-------------------------------------------------------x--x--x--x--|
A||-------------------------------------------------------4--4--4--4--|
B||--4'\'\'\'\'\'\'\'\'\'\'\'\'\'\'\'\'\'\'\'\'\'\'\'\----------------|


Guitar 1:
E||-------------------|
B||-------------------|
G||-------------------|
D||-------------------|
A||--8--8--8--8--9\---|
B||--6--6--6--6--7\---|


Guitar 2:
E||-------------------|
B||-------------------|
G||--10-10-10-10-11\--|
D||--x--x--x--x--x-\--|
A||--8--8--8--8--9-\--|
B||-------------------|



[Pre-Verse]
Guitar 1:
E||-------------------------------------------------------------------|
B||-------------------------------------------------------------------|
G||-------------------------------------------------------------------|
D||-------------------------------------------------------------------|
A||--------0-0-0-4-4-------0-0-0-4-4-------0-0-0-4-4-------5-5-5-4-4--|
B||--7-7-7-----------7-7-7-----------6-6-6-----------6-6-6------------|


E||----------------------------------------------------------|
B||----------------------------------------------------------|
G||----------------------------------------------------------|
D||----------------------------------------------------------|
A||--------0-0-0-4-4-------0-0-0-4-4-4-----------8--8--8--8--|
B||--7-7-7-----------7-7-7-----------2-----------6--6--6--6--|


Guitar 2:
E||----------------------------------------------------------|
B||----------------------------------------------------------|
G||----------------------------------------------10-10-10-10-|
D||----------------------------------------------x--x--x--x--|
A||----------------------------------------------8--8--8--8--|
B||----------------------------------------------------------|



Guitar 1:
E||-------------------------------------------------------------------|
B||-------------------------------------------------------------------|
G||-------------------------------------------------------------------|
D||-------------------------------------------------------------------|
A||--------0-0-0-4-4-------0-0-0-4-4-------0-0-0-4-4-------5-5-5-4-4--|
B||--7-7-7-----------7-7-7-----------6-6-6-----------6-6-6------------|


E||----------------------------------------------------------|
B||----------------------------------------------------------|
G||----------------------------------------------------------|
D||----------------------------------------------------------|
A||--------0-0-0-4-4-------0-0-0-4-4-4--4--4--4--8--8--8--8--|
B||--7-7-7-----------7-7-7-----------2--2--2--2--6--6--6--6--|


Guitar 2:
E||----------------------------------------------------------|
B||----------------------------------------------------------|
G||----------------------------------6--6--6--6--10-10-10-10-|
D||----------------------------------x--x--x--x--x--x--x--x--|
A||----------------------------------4--4--4--4--8--8--8--8--|
B||----------------------------------------------------------|



[Verse]
Guitar 1/2:
E||-------------------------------------------------------------------|
B||-------------------------------------------------------------------|
G||-------------------------------------------------------------------|
D||-------------------------------------------------------------------|
A||--------0-0-0-4-4-------0-0-0-4-4-------0-0-0-4-4-------5-5-5-4-4--|
B||--7-7-7-----------7-7-7-----------6-6-6-----------6-6-6------------|
     . . .           . . .           . . .           . . .


E||-------------------------------------------------|
B||-------------------------------------------------|
G||-------------------------------------------------|
D||-------------------------------------------------|
A||--------0-0-0-4-4-------0-0-0-4-4-4--4--4--4--8--|
B||--7-7-7-----------7-7-7-----------2--2--2--2--6--|
     . . .           . . .


Guitar 2:
E||---------------|
B||---------------|
G||--10-10-10-10--|
D||--x--x--x--x---|
A||--8--8--8--8---|
B||---------------|



[Chorus]
Guitar 1:
E||--------------------------------------------------------|
B||--------------------------------------------------------|
G||--------------------------------------------------------|
D||--------------------------------------------------------|
A||--9----11----12--5----7----9--2----2----2--2----2----2--|
B||--7----9-----10--3----5----7--0----0----0--0----0----0--|


E||--------------------------------------------------------|
B||--------------------------------------------------------|
G||--------------------------------------------------------|
D||--------------------------------------------------------|
A||--9----11----12--5----7----9--2----2----2--2----2----2--|
B||--7----9-----10--3----5----7--0----0----0--0--0-0--0-0--|
                                                 .    .


E||--------------------------------------------------------|
B||--------------------------------------------------------|
G||--------------------------------------------------------|
D||--------------------------------------------------------|
A||--9----11----12--5----7----9--2----2----2--2----2----2--|
B||--7----9-----10--3----5----7--0----0----0--0----0----0--|


E||--------------------------------------------------------|
B||--------------------------------------------------------|
G||--------------------------------------------------------|
D||--------------------------------------------------------|
A||--9----11----12--5----7----9--8--8--8--8--4--4--4--4----|
B||--7----9-----10--3----5----7--6--6--6--6--2--2--2--2----|


Guitar 2:
E||-----------------------------------------------------------------|
B||-----------------------------------------------------------------|
G||--11----11----11--11----11----11--11----11----11--11----11---11--|
D||--x-----x-----x---x-----x-----x---x-----x-----x---x-----x----x---| [x3]
A||--9-----9-----9---9-----9-----9---9-----9-----9---9-----9----9---|
B||-----------------------------------------------------------------|


E||---------------------------------------|
B||---------------------------------------|
G||--11----11----11--11----11----11--11~--|
D||--x-----x-----x---x-----x-----x--------|
A||--9-----9-----9---9-----9-----9--------|
B||---------------------------------------|



[Pre-Verse]
Guitar 1:
E||---------------------------------------------------|
B||---------------------------------------------------|
G||---------------------------------------------------|
D||---------------------------------------------------|
A||--------0-0-0-4-4-------0-0-0-4-4-------0-0-0-4-4--|
B||--7-7-7-----------7-7-7-----------6-6-6------------|



[Verse]
Guitar 1/2:
E||-------------------------------------------------------------------|
B||-------------------------------------------------------------------|
G||-------------------------------------------------------------------|
D||-------------------------------------------------------------------|
A||--------0-0-0-4-4-------0-0-0-4-4-------0-0-0-4-4-------5-5-5-4-4--|
B||--7-7-7-----------7-7-7-----------6-6-6-----------6-6-6------------|


E||----------------------------------------------------------|
B||----------------------------------------------------------|
G||----------------------------------------------------------|
D||----------------------------------------------------------|
A||--------0-0-0-4-4-------0-0-0-4-4-4--4--4--4--8--8--8--8--|
B||--7-7-7-----------7-7-7-----------2--2--2--2--6--6--6--6--|


E||-------------------------------------------------------------------|
B||-------------------------------------------------------------------|
G||-------------------------------------------------------------------|
D||-------------------------------------------------------------------|
A||--------0-0-0-4-4-------0-0-0-4-4-------0-0-0-4-4-------5-5-5-4-4--|
B||--7-7-7-----------7-7-7-----------6-6-6-----------6-6-6------------|


E||----------------------------------------------------------|
B||----------------------------------------------------------|
G||----------------------------------------------------------|
D||----------------------------------------------------------|
A||--------0-0-0-4-4-------0-0-0-4-4-4--4--4--4--8--8--8--8--|
B||--0-0-0-----------0-0-0-----------2--2--2--2--6--6--6--6--|


Guitar 1:
E||--------------------|
B||--------------------|
G||--------------------|
D||--------------------|
A||--4--4--4--4--8--8--|
B||--2--2--2--2--6--6--|



[Chorus]
Guitar 1:
E||--------------------------------------------------------|
B||--------------------------------------------------------|
G||--------------------------------------------------------|
D||--------------------------------------------------------|
A||--9----11----12--5----7----9--2----2----2--2----2----2--|
B||--7----9-----10--3----5----7--0----0----0--0----0----0--|


E||--------------------------------------------------------|
B||--------------------------------------------------------|
G||--------------------------------------------------------|
D||--------------------------------------------------------|
A||--9----11----12--5----7----9--2----2----2--2----2----2--|
B||--7----9-----10--3----5----7--0----0----0--0--0-0--0-0--|
                                                 .    .


E||--------------------------------------------------------|
B||--------------------------------------------------------|
G||--------------------------------------------------------|
D||--------------------------------------------------------|
A||--9----11----12--5----7----9--2----2----2--2----2----2--|
B||--7----9-----10--3----5----7--0----0----0--0----0----0--|


E||------------------------------------------------------|
B||------------------------------------------------------|
G||------------------------------------------------------|
D||------------------------------------------------------|
A||--9----11----12--5----7----9--8--8--8--8--4--4--4--4--|
B||--7----9-----10--3----5----7--6--6--6--6--2--2--2--2--|


E||--------------------------|
B||--------------------------|
G||--------------------------|
D||--------------------------|
A||--4--4--4--4--4--4--4--4--|
B||--2--2--2--2--2--2--2--2--|


Guitar 2:
E||-----------------------------------------------------------------|
B||-----------------------------------------------------------------|
G||--11----11----11--11----11----11--11----11----11--11----11---11--|
D||--x-----x-----x---x-----x-----x---x-----x-----x---x-----x----x---| [x3]
A||--9-----9-----9---9-----9-----9---9-----9-----9---9-----9----9---|
B||-----------------------------------------------------------------|


E||---------------------------------------|
B||---------------------------------------|
G||--11----11----11--11----11----11--11~--|
D||--x-----x-----x---x-----x-----x--------|
A||--9-----9-----9---9-----9-----9--------|
B||---------------------------------------|


E||-------|
B||-------|
G||--11~--|
D||--x----|
A||--9~---|
B||-------|



[Main Riff]
Guitar 1:
           T          T          T          T          T
E||-------------------------------------------------------------------|
B||-------------------------------------------------------------------|
G||-------------------------------------------------------------------|
D||-------------------------------------------------------------------| [x4]
A||-------------------------------------------------------4--4--4--4--|
B||--3h6p0-14p0-3h6p0-14p0-3h6p0-14p0-3h6p0-14p0-3h6p0-14-2--2--2--2--|


E||---------------------------------|
B||---------------------------------|
G||---------------------------------|
D||---------------------------------|
A||--4--4--4--4--4--4--4--4--4--4~--|
B||--2--2--2--2--2--2--2--2--2--2~--|


Guitar 2:
E||-------------------------------------------------------------------|
B||-------------------------------------------------------------------|
G||-------------------------------------------------------6--6--6--6--|
D||-------------------------------------------------------x--x--x--x--|
A||-------------------------------------------------------4--4--4--4--|
B||-------------------------------------------------------------------|


E||-------------------------------------------------------------------|
B||-------------------------------------------------------------------|
G||-------------------------------------------------------6--6--6--6--|
D||-------------------------------------------------------x--x--x--x--|
A||-------------------------------------------------------4--4--4--4--|
B||-------------------------------------------------------------------|


E||-------------------------------------------------------------------|
B||-------------------------------------------------------------------|
G||-------------------------------------------------------6--6--6--6--|
D||-------------------------------------------------------x--x--x--x--|
A||-------------------------------------------------------4--4--4--4--|
B||--5'\'\'\'\'\'\'\'\'\'\'\'\'\'\'\'\'\'\'\'\'\'\'\'\----------------|


E||-------------------------------------------------------------------|
B||-------------------------------------------------------------------|
G||-------------------------------------------------------------------|
D||-------------------------------------------------------------------|
A||-------------------------------------------------------------------|
B||--4'\'\'\'\'\'\'\'\'\'\'\'\'\'\'\'\'\'\'\'\'\'\'\'\----------------|



[Breakdown]
Guitar 1/2:
E||------------------------------------------------------------------|
B||------------------------------------------------------------------|
G||------------------------------------------------------------------|
D||------------------------------------------------------------------|
A||------------------------------------------------------------------|
B||--3----0---0---0---0---0---0---x-3----0---0---0---0---0---0h3h6---|


E||------------------------------------------------------------------|
B||------------------------------------------------------------------|
G||------------------------------------------------------------------|
D||------------------------------------------------------------------|
A||---------------------------------4---4-4---4-x-x-8---8-8---8-x-x--|
B||--2~---0---0---0---0---0---0---x-2---2-2---2-x-x-6---6-6---6-x-x--|


E||------------------------------------------------------------------|
B||------------------------------------------------------------------|
G||------------------------------------------------------------------|
D||--*5-----------------------------*5-------------------------------|
A||------------------------------------------------------------------|
B||-------0---0---0---0---0---0---x------0---0---0---0---0---0h3h6---|


E||--------------------------------------------------------------------|
B||--------------------------------------------------------------------|
G||--6-----------------------------------------------------------------|
D||--------------------------------------------------------------------|
A||---------------------------------4---4-4---4-x-x-8---8-8---8-x-x-x--|
B||-------0---0---0---0---0---0---x-2---2-2---2-x-x-6---6-6---6-x-x-x--|



[Pre-Chorus]
Guitar 1:
E||---------------------------------------------------|
B||---------------------------------------------------|
G||---------------------------------------------------|
D||---------------------------------------------------|
A||--------0-0-0-4-4-------0-0-0-4-4-------0-0-0-4-4--|
B||--7-7-7-----------7-7-7-----------6-6-6------------|



[Chorus]
Guitar 1:
E||--------------------------------------------------------|
B||--------------------------------------------------------|
G||--------------------------------------------------------|
D||--------------------------------------------------------|
A||--9----11----12--5----7----9--2----2----2--2----2----2--|
B||--7----9-----10--3----5----7--0----0----0--0----0----0--|


E||--------------------------------------------------------|
B||--------------------------------------------------------|
G||--------------------------------------------------------|
D||--------------------------------------------------------|
A||--9----11----12--5----7----9--2----2----2--2----2----2--|
B||--7----9-----10--3----5----7--0----0----0--0--0-0--0-0--|
                                                 .    .


E||--------------------------------------------------------|
B||--------------------------------------------------------|
G||--------------------------------------------------------|
D||--------------------------------------------------------|
A||--9----11----12--5----7----9--2----2----2--2----2----2--|
B||--7----9-----10--3----5----7--0----0----0--0----0----0--|


E||------------------------------------------------------|
B||------------------------------------------------------|
G||------------------------------------------------------|
D||------------------------------------------------------|
A||--9----11----12--5----7----9--8--8--8--8--4--4--4--4--|
B||--7----9-----10--3----5----7--6--6--6--6--2--2--2--2--|


E||--------------------------|
B||--------------------------|
G||--------------------------|
D||--------------------------|
A||--4--4--4--4--4--4--4--4--|
B||--2--2--2--2--2--2--2--2--|


Guitar 2:
E||-----------------------------------------------------------------|
B||-----------------------------------------------------------------|
G||--11----11----11--11----11----11--11----11----11--11----11---11--|
D||--x-----x-----x---x-----x-----x---x-----x-----x---x-----x----x---| [x3]
A||--9-----9-----9---9-----9-----9---9-----9-----9---9-----9----9---|
B||-----------------------------------------------------------------|


E||---------------------------------------|
B||---------------------------------------|
G||--11----11----11--11----11----11--11~--|
D||--x-----x-----x---x-----x-----x--------|
A||--9-----9-----9---9-----9-----9--------|
B||---------------------------------------|


E||-------|
B||-------|
G||--11~--|
D||--x----|
A||--9~---|
B||-------|



[Ouutro]
Guitar 1/2:
E||------------------------------------------------------------------|
B||------------------------------------------------------------------|
G||------------------------------------------------------------------|
D||------------------------------------------------------------------|
A||------------------------------------------------------------------|
B||--3----0---0---0---0---0---0---x-3----0---0---0---0---0---0h3h6---|


E||------------------------------------------------------------------|
B||------------------------------------------------------------------|
G||------------------------------------------------------------------|
D||------------------------------------------------------------------|
A||---------------------------------4---4-4---4-x-x-8---8-8---8-x-x--|
B||--2~---0---0---0---0---0---0---x-2---2-2---2-x-x-6---6-6---6-x-x--|





*****************************
-Tablature Legend-

h   hammer-on
p   pull-off
b   bend
pb  pre-bend
r   release bend
~   hold / vibrato
.   palm mute
/   slide up
\   slide down
*   pinch harmonic
'   natural harmonic
x   mute note
T   tap

*****************************
Suggest correction
Creating personal tab
Creating personal tab
You can edit any tab online and save it as your Personal.

You can edit, replace or remove any tab part or add personal notes – all changes will be seen only by you.

Personal tabs can be accessed anytime from any device, even offline.
Learn more »
Give kudos to tab author, rate the tab!
1 2 3 4 5
comments
print report bad tab
guest
You may want to rate the tab now too:
select rating
Wanna post a correction for this tab? Suggest correction