Oops, an error
Loading. Please wait.

Live To Kill Tab

version 1
version 1

Whole song

894 views 1 this week
no commentswrite comment
1 2 3 4 5
2 more votes to show rating
add to favorites
launch autoscroll
font size
0
reset
how to read this tab
guitar tuner
Autoscroll
slow
fast
+/-
esc
set tempo
stop
Help us to improve Ultimate-Guitar.com Take our survey!
×
Author
Difficulty
Tuning
intermediate
D# G# C# F# A# D#
SILVERSTEIN LIVE TO KIL< FIST TAB ON INTERNET, CHECK OUT MY PROFILE FOR LOADS MORE 
TABS FROM THIS ALBUM
Tuning down half step

INTRO
d#|---------------------------------------------------------------|
A#|---------------------------------------------------------------|
F#|---------------------------------------------------------------|
C#|--12-10-9----------101010101010-12-10-9----------10-5-7-9------|X2!!
G#|----------10-9\7/9-101010101010---------10-9\7/9-10-5-7-9------|
D#|--------------------8-8-8-8-8-8-------------------8-3-5-7------|


VERSE I Played clean
d#|--00000000000000-33333333333333--------------------------------|
A#|--00000000000000-33333333333333--------------------------------|
F#|--00000000000000-00000000000000----------------44444444444444--|
C#|--22222222222222-00000000000000-77777777777777-44444444444444--|X2
G#|--22222222222222-22222222222222-77777777777777-22222222222222--|
D#|--00000000000000-33333333333333-55555555555555-----------------|

This on second time
d#|----------------------|
A#|----------------------|
F#|--9~----7~----5~--5---|
C#|--9~----7~----5~--5---|
G#|--7~----5~----3~--3---|
D#|----------------------|

This is where it starts to repeat

Intro Again

d#|---------------------------------------------------------------|
A#|---------------------------------------------------------------|
F#|---------------------------------------------------------------|
C#|--12-10-9----------101010101010-12-10-9----------10-5-7-9------|X2!!
G#|----------10-9\7/9-101010101010---------10-9\7/9-10-5-7-9------|
D#|--------------------8-8-8-8-8-8-------------------8-3-5-7------|

Then verse agaijn BUT IN DISTONRTION THIS TIME
d#|--00000000000000-33333333333333--------------------------------|
A#|--00000000000000-33333333333333--------------------------------|
F#|--00000000000000-00000000000000----------------44444444444444--|
C#|--22222222222222-00000000000000-77777777777777-44444444444444--|X2
G#|--22222222222222-22222222222222-77777777777777-22222222222222--|
D#|--00000000000000-33333333333333-55555555555555-----------------|

Then intro again
d#|---------------------------------------------------------------|
A#|---------------------------------------------------------------|
F#|---------------------------------------------------------------|
C#|--12-10-9----------101010101010-12-10-9----------10-5-7-9------|X2!!
G#|----------10-9\7/9-101010101010---------10-9\7/9-10-5-7-9------|
D#|--------------------8-8-8-8-8-8-------------------8-3-5-7------|

this sortof interlude part
d#|----------------------------------------------------------------------------------|
A#|----------------------------------------------------------------------------------|
F#|-55-555-555-555-5-77-777-777-7771111111111111111111-1212-12-121212-121212-121212--|
C#|-55-555-555-555-5-77-777-777-7771111111111111111111-1212-12-121212-121212-121212--|
G#|-33-333-333-333-3-55-555-555-555-99-999-999-999-999-1010-10-101010-101010-101010--|
D#|----------------------------------------------------------------------------------|
THAT X2
And in second time instaid of the last two power chords play:
d#|---------------------------------------|
A#|---------------------------------------|
F#|---------------------------------------|
C#|-2-22-2-2-2-22--5-55-5-5-5-55----------|
G#|-2-22-2-2-2-22--5-55-5-5-5-55----------|
D#|-0-00-0-0-0-00--3-33-3-3-3-33----------|

then this bit

d#|----------------------|
A#|----------------------|
F#|--9~----7~----5~--5---|
C#|--9~----7~----5~--5---|
G#|--7~----5~----3~--3---|
D#|----------------------|

thenplay intro X4 NOT X2 Like ORIGIONALLY
d#|---------------------------------------------------------------|
A#|---------------------------------------------------------------|
F#|---------------------------------------------------------------|
C#|--12-10-9----------101010101010-12-10-9----------10-5-7-9------|X4!!!!!!!
G#|----------10-9\7/9-101010101010---------10-9\7/9-10-5-7-9------|
D#|--------------------8-8-8-8-8-8-------------------8-3-5-7------|

and finnaly play this till the end of the song
d#|------------------------------------------------|
A#|------------------------------------------------|
F#|-------5-5--------------------------------------|
C#|-2-2---5-5--2-2--xxx--10-5-7-9------------------|
G#|-2-2---3-3--2-2--xxx--10-5-7-9------------------|
D#|-0-0--------0-0--xxx---8-3-5-7------------------|

THanks for playing, dont forget theres plenty mores tabs from this album on my profile thanks!!!!
Suggest correction
Give kudos to tab author, rate the tab!
1 2 3 4 5
comments
print report bad tab
guest
You may want to rate the tab now too:
select rating
Wanna post a correction for this tab? Suggest correction