Oops, an error
Loading. Please wait.

Lost Positives tab

262 views 15 this week
no commentswrite comment
1 2 3 4 5
3 more votes to show rating
add to favorites
×
Save as Personal and add changes to this tab that will be seen only by you. Learn more ›
×
You can save this tab as Personal to edit and correct it or add notes. All changes will be seen only by you. Learn more »
launch autoscroll
font size
0
reset
how to read this tab
guitar tuner
edit
Autoscroll
slow
fast
+/-
esc
set tempo
stop
Tabbed by: Joshua Garcia (joshuag523@aol.com)

Tabs for the song: Lost Positives by Silverstein
Please rate and let me know if you have any corrections. Thank you.


Tuning: Custom Tuning (B A D G B E)
As stated here: https://youtu.be/sy80RQwg0-A?t=4m11s


[Intro]
Guitar 1:
E||-------------------------------------------------------------------|
B||-------------------------------------------------------------------|
G||-------------------------------------------------------------------|
D||--4-4-4-4-4-4-4---5-5-5-5-5-5-5-5-4-4-4-4-4-4-4-4-4-4-4-4-4-4-4-4--|
A||--3-3-3-3-3-3-3-0-7-7-7-7-7-7-7-7-5-5-5-5-5-5-5-5-5-5-5-5-5-5-5-5--|
B||-------------------------------------------------------------------|


E||-------------------------------------------------------------------|
B||-------------------------------------------------------------------|
G||-------------------------------------------------------------------|
D||--4-4-4-4-4-4-4-5-5-5-5-5-5-5-5-5-4-4-4-4-4-4-4-4-4~---------------|
A||--3-3-3-3-3-3-3-7-7-7-7-7-7-7-7-5-5-5-5-5-5-5-5-5-5~---------------|
B||-------------------------------------------------------------------|



[Pre-Verse]
Guitar 1/2:
E||------------------------------------------------------------------|
B||------------------------------------------------------------------|
G||------------------------------------------------------------------|
D||------------------------------------------------------------------|
A||------------------------------------------------------------------|
B||--0-0-0-0-12-10-0-8\--0-0-0-5-7--8\--0---0-0-0-0-0-5-7--8--1-1-1--|


E||------------------------------------------------------------------|
B||------------------------------------------------------------------|
G||------------------------------------------------------------------|
D||------------------------------------------------------------------|
A||--------------------------------------------------------5---------|
B||--0-0-0-0-12-10-0-8\--0-0-0-5-7--8\--0---0-0-0---0-8-7-----3~-----|


E||------------------------------------------------------------------|
B||------------------------------------------------------------------|
G||------------------------------------------------------------------|
D||------------------------------------------------------------------|
A||------------------------------------------------------------------|
B||--0-0-0-0-12-10-0-8\--0-0-0-5-7--8\--0---0-0-0-0-0-5-7--8--1-1-1--|


E||------------------------------------------------------------------|
B||------------------------------------------------------------------|
G||------------------------------------------------------------------|
D||------------------------------------------------------------------|
A||------------------------------------------------------------------|
B||--0-0-0-0-12-10-0-8\--0-0-0-5-7--8\--0---0-0-0-0-0-0--------------|



[Verse]
Guitar 1:
E||-------------------------------------------------------------------|
B||-------------------------------------------------------------------|
G||--4-4-4-4-4-4-4-4-4-4-4-4-4-4-4-4-4-4-4-4-4-4-4-4-4-4-4-4-4-4-4-4--|
D||-------------------------------------------------------------------| [x4]
A||-------------------------------------------------------------------|
B||-------------------------------------------------------------------|
     . . . . . . . . . . . . . . . . . . . . . . . . . . . . . . . . 


Guitar 2:
E||-----------------------------------|-----------------------------------|
B||--3~----------------8~--------10~--|--3~----------------8~--------12~--|
G||--x-----------------x---------x----|--x-----------------x---------x----|
D||--x-----------------x---------x----|--x-----------------x---------x----|
A||--x-----------------x---------x----|--x-----------------x---------x----|
B||--0~----------------5~--------8~---|--0~----------------5~--------8~---|


E||-------|
B||--13~--|
G||-------|
D||-------|
A||-------|
B||-------|



[Chorus]
Guitar 1:
E||-----------------------------------------------------|
B||-----------------------------------------------------|
G||-----------------------------------------------------|
D||-----------------------------------------------------|
A||--3--3--3--3--3--3--3--3--7--7--7--7--7--7--7--7-----|
B||--1--1--1--1--1--1--1--1--5--5--5--5--5--5--5--5-----|


E||-----------------------------------------------------|
B||-----------------------------------------------------|
G||-----------------------------------------------------|
D||-----------------------------------------------------|
A||--5--5--5--5--5--5--5--5--5--5--5--5--5-2-2-2-2-2-2--|
B||--3--3--3--3--3--3--3--3--3--3--3--3--3-0-0-0-0-0-0--|


E||-----------------------------------------------------|
B||-----------------------------------------------------|
G||-----------------------------------------------------|
D||-----------------------------------------------------|
A||--3--3--3--3--3--3--3--3--7--7--7--7--7--7--7--7-----|
B||--1--1--1--1--1--1--1--1--5--5--5--5--5--5--5--5-----|


E||--------------------------------------------------------|
B||--------------------------------------------------------|
G||-------------------------------4---------5---5-5-5-5-5--|
D||-------------------------------x---------x---x-x-x-x-x--| [x2]
A||--5--5--5--5--5--5--5--5-5-5-5-2---5-5-5-3---3-3-3-3-3--|
B||--3--3--3--3--3--3--3--3-3-3-3-----3-3-3----------------|


Guitar 2:
E||---------------------------------------------------|---------------------------------------------------|
B||--5--5--5--5--5--5--5--5--8--8--8--8---------------|--7--7--7--7--7--7--7--7--7--7--7--7--7--7--7--7---|
G||-------------------------------------7--7--7--7----|---------------------------------------------------|
D||---------------------------------------------------|---------------------------------------------------|
A||---------------------------------------------------|---------------------------------------------------|
B||---------------------------------------------------|---------------------------------------------------|


E||---------------------------------------------------|---------------------------------------------------|
B||--5--5--5--5--5--5--5--5--8--8--8--8---------------|--7--7--7--7--7--7--7--7---------------------------|
G||--------------------------------------7--7--7--7---|--------------------------7--7--7--7--7--7--7--7---|
D||---------------------------------------------------|---------------------------------------------------|
A||---------------------------------------------------|---------------------------------------------------|
B||---------------------------------------------------|---------------------------------------------------|


E||--15-15-15-15-15-15-15-15-15-15-15-15-10-10-10-10--|--14-14-14-14-14-14-14-14-14-14-14-14-14-14-14-14--|
B||---------------------------------------------------|---------------------------------------------------|
G||---------------------------------------------------|---------------------------------------------------|
D||---------------------------------------------------|---------------------------------------------------|
A||---------------------------------------------------|---------------------------------------------------|
B||---------------------------------------------------|---------------------------------------------------|


E||--15-15-15-15-15-15-15-15-15-15-15-15-10-10-10-10--|--14-14-14-14-14-14-14-14-10-10-10-10-10-10-10-10--|
B||---------------------------------------------------|---------------------------------------------------|
G||---------------------------------------------------|---------------------------------------------------|
D||---------------------------------------------------|---------------------------------------------------|
A||---------------------------------------------------|---------------------------------------------------|
B||---------------------------------------------------|---------------------------------------------------|



Guitar 3 (Listen for when to come in):
E||---------------------------|
B||---------------------------|
G||--14/16\14----12~---11-9~--|
D||--x-/x-\x-----x-----x--x---|
A||--12/14\12----10~---9--7~--|
B||---------------------------|



[Pre-Verse]
Guitar 1/2:
E||------------------------------------------------------------------|
B||------------------------------------------------------------------|
G||------------------------------------------------------------------|
D||------------------------------------------------------------------|
A||------------------------------------------------------------------|
B||--0-0-0-0-12-10-0-8\--0-0-0-5-7--8\--0---0-0-0-0-0-5-7--8--1-1-1--|


E||---------------------------------------------------------------------|
B||---------------------------------------------------------------------|
G||---------------------------------------------------------------------|
D||---------------------------------------------------------------------|
A||---------------------------------------------------------------------|
B||--0-0-0-0-12-10-0-8\--0-0-0-5-7--8\--0---0-0-0-0-0-'5\'\'\'\'\'\'\'--|



[Verse]
Guitar 1:
E||-------------------------------------------------------------------|
B||-------------------------------------------------------------------|
G||--4-4-4-4-4-4-4-4-4-4-4-4-4-4-4-4-4-4-4-4-4-4-4-4-4-4-4-4-4-4-4-4--|
D||-------------------------------------------------------------------| [x4]
A||-------------------------------------------------------------------|
B||-------------------------------------------------------------------|
     . . . . . . . . . . . . . . . . . . . . . . . . . . . . . . . . 


Guitar 2:
E||-----------------------------------|-----------------------------------|
B||--3~----------------8~--------10~--|--3~----------------8~--------12~--|
G||--x-----------------x---------x----|--x-----------------x---------x----|
D||--x-----------------x---------x----|--x-----------------x---------x----|
A||--x-----------------x---------x----|--x-----------------x---------x----|
B||--0~----------------5~--------8~---|--0~----------------5~--------8~---|


E||-------|
B||--13~--|
G||-------|
D||-------|
A||-------|
B||-------|



[Chorus]
Guitar 1:
E||-----------------------------------------------------|
B||-----------------------------------------------------|
G||-----------------------------------------------------|
D||-----------------------------------------------------|
A||--3--3--3--3--3--3--3--3--7--7--7--7--7--7--7--7-----|
B||--1--1--1--1--1--1--1--1--5--5--5--5--5--5--5--5-----|


E||-----------------------------------------------------|
B||-----------------------------------------------------|
G||-----------------------------------------------------|
D||-----------------------------------------------------|
A||--5--5--5--5--5--5--5--5--5--5--5--5--5-2-2-2-2-2-2--|
B||--3--3--3--3--3--3--3--3--3--3--3--3--3-0-0-0-0-0-0--|


E||-----------------------------------------------------|
B||-----------------------------------------------------|
G||-----------------------------------------------------|
D||-----------------------------------------------------|
A||--3--3--3--3--3--3--3--3--7--7--7--7--7--7--7--7-----|
B||--1--1--1--1--1--1--1--1--5--5--5--5--5--5--5--5-----|


E||--------------------------------------------------------|
B||--------------------------------------------------------|
G||-------------------------------4---------5---5-5-5-5-5--|
D||-------------------------------x---------x---x-x-x-x-x--| [x2]
A||--5--5--5--5--5--5--5--5-5-5-5-2---5-5-5-3---3-3-3-3-3--|
B||--3--3--3--3--3--3--3--3-3-3-3-----3-3-3----------------|


Guitar 2:
E||---------------------------------------------------|---------------------------------------------------|
B||--5--5--5--5--5--5--5--5--8--8--8--8---------------|--7--7--7--7--7--7--7--7--7--7--7--7--7--7--7--7---|
G||-------------------------------------7--7--7--7----|---------------------------------------------------|
D||---------------------------------------------------|---------------------------------------------------|
A||---------------------------------------------------|---------------------------------------------------|
B||---------------------------------------------------|---------------------------------------------------|


E||---------------------------------------------------|---------------------------------------------------|
B||--5--5--5--5--5--5--5--5--8--8--8--8---------------|--7--7--7--7--7--7--7--7---------------------------|
G||--------------------------------------7--7--7--7---|--------------------------7--7--7--7--7--7--7--7---|
D||---------------------------------------------------|---------------------------------------------------|
A||---------------------------------------------------|---------------------------------------------------|
B||---------------------------------------------------|---------------------------------------------------|


E||--15-15-15-15-15-15-15-15-15-15-15-15-10-10-10-10--|--14-14-14-14-14-14-14-14-14-14-14-14-14-14-14-14--|
B||---------------------------------------------------|---------------------------------------------------|
G||---------------------------------------------------|---------------------------------------------------|
D||---------------------------------------------------|---------------------------------------------------|
A||---------------------------------------------------|---------------------------------------------------|
B||---------------------------------------------------|---------------------------------------------------|


E||--15-15-15-15-15-15-15-15-15-15-15-15-10-10-10-10--|--14-14-14-14-14-14-14-14-10-10-10-10-10-10-10-10--|
B||---------------------------------------------------|---------------------------------------------------|
G||---------------------------------------------------|---------------------------------------------------|
D||---------------------------------------------------|---------------------------------------------------|
A||---------------------------------------------------|---------------------------------------------------|
B||---------------------------------------------------|---------------------------------------------------|



Guitar 3 (Listen for when to come in):
E||---------------------------|
B||---------------------------|
G||--14/16\14----12~---11-9~--|
D||--x-/x-\x-----x-----x--x---|
A||--12/14\12----10~---9--7~--|
B||---------------------------|



[Bridge]
Guitar 1/2:
E||-------------------------------------------------------------------------------------------------|
B||-------------------------------------------------------------------------------------------------|
G||-------------------------------------------------------------------------------------------------|
D||--2---2-----2---2-----5---5---------5---5------4---4-----4---4-----------------------------------|
A||--3---3-----3---3-----7---7---------7---7------5---5-----5---5------------2---------3------------|
B||--1---1---1-1---1---1-5---5---5-5-5-5---5------3---3---3-3---3---3--3-3-3-----3-3-3---0--0--0-0--|
             .         .         . . .                    .         .  . . .     . . .         .


E||---------------------------------------------------------------------------|
B||---------------------------------------------------------------------------|
G||---------------------------------------------------------------------------|
D||--2---2-----2---2-----5---5-----5--------------4---4-----4-------------4~--|
A||--3---3-----3---3-----7---7-----7--------------5---5-----5-------------5~--|
B||--1---1---1-1---1---1-5---5---5-5--------------3---3---3-3---3---3---3-3~--|
             .         .         .                        .     .   .   .



[Interlude]
Guitar 1:
E||-----------------------------------------------------|
B||-----------------------------------------------------|
G||-----------------------------------------------------|
D||-----------------------------------------------------|
A||--3--3--3--3--3--3--3--3--7--7--7--7--7--7--7--7-----|
B||--1--1--1--1--1--1--1--1--5--5--5--5--5--5--5--5-----|


E||-----------------------------------------------------|
B||-----------------------------------------------------|
G||-----------------------------------------------------|
D||-----------------------------------------------------|
A||--5--5--5--5--5--5--5--5--5--5--5--5--5-2-2-2-2-2-2--|
B||--3--3--3--3--3--3--3--3--3--3--3--3--3-0-0-0-0-0-0--|


E||-----------------------------------------------------|
B||-----------------------------------------------------|
G||-----------------------------------------------------|
D||-----------------------------------------------------|
A||--3--3--3--3--3--3--3--3--7--7--7--7--7--7--7--7-----|
B||--1--1--1--1--1--1--1--1--5--5--5--5--5--5--5--5-----|


E||--------------------------|
B||--------------------------|
G||--------------------------|
D||--------------------------|
A||--5--5--5--5--5--5--5--5--|
B||--3--3--3--3--3--3--3--3--|


Guitar 2:
E||-------------------------------------|-------------------------------------|
B||--7-7-7-7-7-7-7-7-7b8-8-8-8----------|--7-7-7-7-7-7-7-7-7-7-7-7-7-7-7-7----|
G||----------------------------7-7-7-7--|-------------------------------------|
D||-------------------------------------|-------------------------------------|
A||-------------------------------------|-------------------------------------|
B||-------------------------------------|-------------------------------------|


E||-------------------------------------|-------------------------------------|
B||--7-7-7-7-7-7-7-7-7b8-8-8-8----------|--7-7-7-7-7-7-7-7--------------------|
G||----------------------------7-7-7-7--|-------------------------------------|
D||-------------------------------------|-------------------------------------|
A||-------------------------------------|-------------------------------------|
B||-------------------------------------|-------------------------------------|



[Chorus]
Guitar 1:
E||-------------------------------------------------------------------|
B||-------------------------------------------------------------------|
G||-------------------------------------------------------------------|
D||--2-2-2-2-2-2-2-2-2-2-2-2-2-2-2-2-5-5-5-5-5-5-5-5-5-5-5-5-5-5-5-5--|
A||-------------------------------------------------------------------|
B||-------------------------------------------------------------------|


E||-------------------------------------------------------------------|
B||-------------------------------------------------------------------|
G||-------------------------------------------------------------------|
D||--4-4-4-4-4-4-4-4-4-4-4-4-4-4-4-4-4-4-4-4-4-4-4-4-4-4-4-4-4-4-4-4--|
A||-------------------------------------------------------------------|
B||-------------------------------------------------------------------|


E||-------------------------------------------------------------------|
B||-------------------------------------------------------------------|
G||-------------------------------------------------------------------|
D||--2-2-2-2-2-2-2-2-2-2-2-2-2-2-2-2-5-5-5-5-5-5-5-5-5-5-5-5-5-5-5-5--|
A||-------------------------------------------------------------------|
B||-------------------------------------------------------------------|


E||-----------------------------------|
B||-----------------------------------|
G||-----------------------------------|
D||--4-4-4-4-4-4-4-4-4-4-4-4-4-4-4-4--|
A||-----------------------------------|
B||-----------------------------------|


Guitar 2:
E||-------------------------------------|-------------------------------------|
B||--7-7-7-7-7-7-7-7-7b8-8-8-8----------|--7-7-7-7-7-7-7-7-7-7-7-7-7-7-7-7----|
G||----------------------------7-7-7-7--|-------------------------------------|
D||-------------------------------------|-------------------------------------|
A||-------------------------------------|-------------------------------------|
B||-------------------------------------|-------------------------------------|


E||-------------------------------------|-------------------------------------|
B||--7-7-7-7-7-7-7-7-7b8-8-8-8----------|--7-7-7-7-7-7-7-7--------------------|
G||----------------------------7-7-7-7--|-------------------------------------|
D||-------------------------------------|-------------------------------------|
A||-------------------------------------|-------------------------------------|
B||-------------------------------------|-------------------------------------|


Guitar 1/2:
E||---------------------------------|
B||---------------------------------|
G||--------4---------5---5-5-5-5-5--|
D||--------x---------x---x-x-x-x-x--|
A||--5-5-5-2---5-5-5-3---3-3-3-3-3--|
B||--3-3-3-----3-3-3----------------|



[Outro]
Guitar 1/2:
E||---------------------------------------------------------------------|
B||---------------------------------------------------------------------|
G||---------------------------------------------------------------------|
D||--2-2-2-2-2-2-2-2-2/4-4-4-4-4-4-4-4-5-5-5-5-5-5-5-5-7-7-7-7-7-7-7-7--|
A||---------------------------------------------------------------------|
B||---------------------------------------------------------------------|


E||-------------------------------------------------------------------|
B||-------------------------------------------------------------------|
G||-------------------------------------------------------------------|
D||--7/9-9-9-9-9-9-9-9-9-9-9-9-9-9-9-9-4-4-4-4-4-4-4-4-4-4-4-4-2------|
A||--------------------------------------------------------------5-5--|
B||-------------------------------------------------------------------|


E||-------------------------------------------------------------------|
B||-------------------------------------------------------------------|
G||-------------------------------------------------------------------|
D||--2-2-2-2-2-2-2-2-2-2-2-2-2-2-2-2-5-5-5-5-5-5-5-5-5-5-5-5-5-5-5-5--|
A||-------------------------------------------------------------------|
B||-------------------------------------------------------------------|


E||-------------------------------------------------------------------|
B||-------------------------------------------------------------------|
G||-------------------------------------------------------------------|
D||--4-4-4-4-4-4-4-4-4-4-4-4-4-4-4-4---4---4---4---4---4---4---4---4--|
A||-------------------------------------------------------------------|
B||-------------------------------------------------------------------|





*****************************
-Tablature Legend-

 h   hammer-on
 p   pull-off
 b   bend
 pb  pre-bend
 r   release bend
 ~   hold / vibrato
 .   palm mute
 /   slide up
 \   slide down
 *   pinch harmonic
 '   natural harmonic
 x   mute note
 T   tap

*****************************

            
            
Suggest correction
Creating personal tab
Creating personal tab
You can edit any tab online and save it as your Personal.

You can edit, replace or remove any tab part or add personal notes – all changes will be seen only by you.

Personal tabs can be accessed anytime from any device, even offline.
Learn more »
Give kudos to tab author, rate the tab!
1 2 3 4 5
comments
print report bad tab
guest
You may want to rate the tab now too:
select rating
Wanna post a correction for this tab? Suggest correction