Oops, an error
Loading. Please wait.

Love With Caution Tab

4,498 views 1 this week
2 commentsread comments
1 2 3 4 5
worth learning
x 8
add to favorites
launch autoscroll
font size
0
reset
how to read this tab
guitar tuner
Autoscroll
slow
fast
+/-
esc
set tempo
stop
Help us to improve Ultimate-Guitar.com Take our survey!
×
Author
Difficulty
Tuning
novice
D A D G B E
cool song

Intro (0:00-0:11)
e----------------------------------|
B----------------------------------|
G-6-5--------------6-5-------------|
D-6-5-444-666-333--6-5-444-666-888-|
A-4-3-444-666-333--4-3-444-666-888-|
D-----444-666-333------444-666-888-|
PM

e----------------------------------|
B----------------------------------|
G-6-5--------------6-5-------------|
D-6-5-444-666-333--6-5-444-666666--|
A-4-3-444-666-333--4-3-444-666666--|
D-----444-666-333------444-666666--|
PM

Verse (0:11-0:23)
e-----------------------------------------------|
B-----------------------------------------------|
G--66-6-66-6-66-6-66-6-55-5-55-5-55-5-55-5------|
D--66-6-66-6-66-6-66-6-55-5-55-5-55-5-55-5------|   X2
A--44-4-44-4-44-4-44-4-33-3-33-3-33-3-33-3------|
D-----------------------------------------------|PM ..   ..   ..   ..   ..   ..   ..   ..

Verse (0:23-0:34)
e------------------------------------|
B------------------------------------|
G------------------------------------|
D--4444444444444444-6666666666666666-|    X2
A--4444444444444444-6666666666666666-|
D--4444444444444444-6666666666666666-|
PM ................ ................

Pre-Chorus (0:34-0:50)
e-----------------------------------------------------|
B-----------------------------------------------------|
G--666-555------666-555------666-555------------------|
D--666-555-4~---666-555-4~---666-555-4444444444444444-|
A--444-333-4~---444-333-4~---444-333-4444444444444444-|
D----------4~-----------4~-----------4444444444444444-|
PM                                   ............

Chorus (0:50-1:01)
e------------------------------|
B------------------------------|
G-------66-55-55-------66-5555-|
D-44-66-66-55-55-44-66-66-5555-|
A-44-66-44-33-33-44-66-44-3333-|
D-44-66----------44-66---------|
PM            ..

e----------------------------------|
B----------------------------------|
G-------66-55-55-------66-55555555-|
D-44-66-66-55-55-44-66-66-55555555-|
A-44-66-44-33-33-44-66-44-33333333-|
D-44-66----------44-66-------------|
PM            ..
Note: the 2 notes that are palm muted in the chorus are hard to hear but they are there

Verse
Verse 2(1:02-1:12)
e-----------------------------------------------|
B-----------------------------------------------|
G--66-6-66-6-66-6-66-6-55-5-55-5-55-5-55-5------|
D--66-6-66-6-66-6-66-6-55-5-55-5-55-5-55-5------|   X2
A--44-4-44-4-44-4-44-4-33-3-33-3-33-3-33-3------|
D-----------------------------------------------|PM ..   ..   ..   ..   ..   ..   ..   ..

Verse (1:12-1:24)
e------------------------------------|
B------------------------------------|
G------------------------------------|
D--4444444444444444-6666666666666666-|    X2
A--4444444444444444-6666666666666666-|
D--4444444444444444-6666666666666666-|
PM ................ ................

Pre-Chorus (1:23-1:39)
e-----------------------------------------------------|
B-----------------------------------------------------|
G--666-555------666-555------666-555------------------|
D--666-555-4~---666-555-4~---666-555-4444444444444444-|
A--444-333-4~---444-333-4~---444-333-4444444444444444-|
D----------4~-----------4~-----------4444444444444444-|
PM                                   ............

Chorus (1:40-1:55)
e------------------------------|
B------------------------------|
G-------66-55-55-------66-5555-|
D-44-66-66-55-55-44-66-66-5555-|    X3
A-44-66-44-33-33-44-66-44-3333-|
D-44-66----------44-66---------|
PM            ..

e---------------------------------------------|
B---------------------------------------------|
G-------66-55-------666666666666-555555555555-|
D-44-66-66-55-44-66-666666666666-555555555555-|
A-44-66-44-33-44-66-444444444444-333333333333-|
D-44-66-------44-66---------------------------|

Bridge (1:55-2:44)
e--------------------------------------|
B--------------------------------------|
G-66666666-55555555--------------------|
D-66666666-55555555-44444444-6666-3333-|    X3
A-44444444-33333333-44444444-6666-3333-|
D-------------------44444444-6666-3333-|
PM........ ........ ........ .... ....

e-------------------------------------|
B-------------------------------------|
G-66666666-5555555--------------------|
D-66666666-5555555-44444444-6666-3333-|
A-44444444-3333333-44444444-6666-3333-|
D------------------44444444-6666-3333-|
PM........ ....... ........

e-----------------------------|
B-----------------------------|
G-6666666666666-5555555555555-|
D-6666666666666-5555555555555-|
A-4444444444444-3333333333333-|
D-----------------------------|
PM

e------------------------------------------------------|
B------------------------------------------------------|
G------------------------------------------------------|
D-10101010101010101010101010-1111111111111111111111111-|
A-8-8-8-8-8-8-8-8-8-8-8-8-8--9-9-9-9-9-9-9-9-9-9-9-9-9-|
D------------------------------------------------------|
PM
Note: above two parts of the bridge are played together twice

e-------------------------|
B-------------------77----|
G----66-55-------66----66-|
D----------66-------------|
A-44----------44----------|
D-------------------------|
PM.. .. .. .. .. .. .. ..
Note final part of bridge is actually played by guitar 2 but u can play it if you want

Final Chorus:
e------------------------------|
B------------------------------|
G-------66-55-55-------66-5555-|
D-44-66-66-55-55-44-66-66-5555-|
A-44-66-44-33-33-44-66-44-3333-|
D-44-66----------44-66---------|
PM            ..

e-------------------------------|
B-------------------------------|
G-------66-55-55-------66666666-|
D-44-66-66-55-55-44-66-66666666-|
A-44-66-44-33-33-44-66-44444444-|
D-44-66----------44-66----------|
PM            ..

e------------------------------|
B------------------------------|
G-------66-55-55-------66-5555-|
D-44-66-66-55-55-44-66-66-5555-|
A-44-66-44-33-33-44-66-44-3333-|
D-44-66----------44-66---------|
PM            ..

e--------------------------------------------------|
B--------------------------------------------------|
G-------66-55-55-------6666666666666-5555555555555-|
D-44-66-66-55-55-44-66-6666666666666-5555555555555-|
A-44-66-44-33-33-44-66-4444444444444-3333333333333-|
D-44-66----------44-66-----------------------------|
PM            ..

e------------------|
B------------------|
G------------------|
D-8888-6666-444-4~-|
A-8888-6666-444-4~-|
D-8888-6666-444-4~-|
PM          ...

So there u go easy song to play. you can play this song in standard but i prefer playing 
in drop d. so have fun playing this
Suggest correction
What's this?
You can suggest a correction to this tab. Community and Mods will review your correction and vote to approve or reject it.
comments
print report bad tab
2 comments total.
0 reply
smartfella90 90 wrote on December 13 2007, 05:39 pm

good song

0 reply
grapefruit7 176 wrote on February 13 2013, 08:09 pm

this is a really awful tab..

guest
You may want to rate the tab now too:
select rating
Please do not post tabs as comments. Select "correction" instead!