Oops, an error
Loading. Please wait.

Massachusetts Tab

version 1
version 1

Acoustic

Whole song

Interactive

10,464 views 24 this week
2 commentsread comments
1 2 3 4 5
x 6
add to favorites
launch autoscroll
font size
0
reset
how to read this tab
guitar tuner
Autoscroll
slow
fast
+/-
esc
set tempo
stop
Help us to improve Ultimate-Guitar.com Take our survey!
×
Author
Tuning
D# G# C# F# A# D#
As far as there are no other tabs for this song, I decided to tab out the way I play it.
It might be not absolutely right but sounds pretty close. Feel free to right the wrongs.

Intro:

eb|---x-x--x-x--x-x--x-x-----------------------------------------------------|
Bb|---1-1--3-3--x-x--x-x-----------------------------------------------------|
Gb|---2-2--x-x--5-5--4-4-----------------------------------------------------|
Db|---2-2--x-x--x-x--x-x-----------------------------------------------------|
Ab|---0-0--x-x--5-5--5-5-----------------------------------------------------|
Eb|---x-x--x-x--3-3--3-3-----------------------------------------------------|


Verse I:

      Am             Asus2          F              G

eb|---0--0-0--0-0-0--0--0-0--0-0-0--x--x-x--x-x-x--x--x-x--x-x-x-------------|
Bb|---1--1-1--1-1-1--0--0-0--0-0-0--x--x-x--x-x-x--x--x-x--x-x-x-------------|
Gb|---2--2-2--2-2-2--2--2-2--2-2-2--2--2-2--2-2-2--4--4-4--4-4-4-------------|
Db|---2--2-2--2-2-2--2--2-2--2-2-2--3--3-3--3-3-3--5--5-5--5-5-5-------------|
Ab|---0--0-0--0-0-0--0--0-0--0-0-0--3--3-3--3-3-3--5--5-5--5-5-5-------------|
Eb|---x--x-x--x-x-x--x--x-x--x-x-x--1--1-1--1-1-1--3--3-3--3-3-3-------------|
      d  d u  u d u  d

      Am             Asus2          F              C       G

eb|---0--0-0--0-0-0--0--0-0--0-0-0--x--x-x--x-x-x--0--0-0--x--x-x------------|
Bb|---1--1-1--1-1-1--0--0-0--0-0-0--x--x-x--x-x-x--1--1-1--x--x-x------------|
Gb|---2--2-2--2-2-2--2--2-2--2-2-2--2--2-2--2-2-2--0--0-0--4--4-4------------|
Db|---2--2-2--2-2-2--2--2-2--2-2-2--3--3-3--3-3-3--2--2-2--5--5-5------------|
Ab|---0--0-0--0-0-0--0--0-0--0-0-0--3--3-3--3-3-3--3--3-3--5--5-5------------|
Eb|---x--x-x--x-x-x--x--x-x--x-x-x--1--1-1--1-1-1--x--x-x--3--3-3------------|
                                                   d  d u  d  d u

      Am             Asus2          F              G

eb|---0--0-0--0-0-0--0--0-0--0-0-0--x--x-x--x-x-x--x--x-x--x-x-x-------------|
Bb|---1--1-1--1-1-1--0--0-0--0-0-0--x--x-x--x-x-x--x--x-x--x-x-x-------------|
Gb|---2--2-2--2-2-2--2--2-2--2-2-2--2--2-2--2-2-2--4--4-4--4-4-4-------------|
Db|---2--2-2--2-2-2--2--2-2--2-2-2--3--3-3--3-3-3--5--5-5--5-5-5-------------|
Ab|---0--0-0--0-0-0--0--0-0--0-0-0--3--3-3--3-3-3--5--5-5--5-5-5-------------|
Eb|---x--x-x--x-x-x--x--x-x--x-x-x--1--1-1--1-1-1--3--3-3--3-3-3-------------|


      Am             Asus2          F              C       G

eb|---0--0-0--0-0-0--0--0-0--0-0-0--x--x-x--x-x-x--0--0-0--x--x-x------------|
Bb|---1--1-1--1-1-1--0--0-0--0-0-0--x--x-x--x-x-x--1--1-1--x--x-x------------|
Gb|---2--2-2--2-2-2--2--2-2--2-2-2--2--2-2--2-2-2--0--0-0--4--4-4------------|
Db|---2--2-2--2-2-2--2--2-2--2-2-2--3--3-3--3-3-3--2--2-2--5--5-5------------|
Ab|---0--0-0--0-0-0--0--0-0--0-0-0--3--3-3--3-3-3--3--3-3--5--5-5------------|
Eb|---x--x-x--x-x-x--x--x-x--x-x-x--1--1-1--1-1-1--x--x-x--3--3-3------------|


                                                              p.m.~~~~~~~
eb|--------------------------------------------------------------------------|
Bb|--------------------------------------------------------------------------|
Gb|---2--4---x-4-------5---5-4-----------2------4---x-4-------5-5-5-5-5-4----|
Db|---x------x-x-------x---x-x----7--5---x----------x-x-------5-5-5-5-5-5----|
Ab|---3------x-5-------5---5-5----5--5---3----------x-5----------------------|
Eb|---1------x-3-------3---3-3----3--3---1----------x-3----------------------|

      I  just  left in the middle of the night..          and never look back

Chorus:

      Am             F     C     G5    F     G5    A     C     

eb|---0--------------1-----0-----3-----1-----3-----0-----0-------------------|
Bb|---1--------------1-----1-----3-----1-----3-----1-----1-------------------|
Gb|---2--------------2-----0-----0-----2-----0-----2-----0-------------------|
Db|---2--------------3-----2-----0-----3-----0-----2-----2-------------------|
Ab|---0--------------3-----3-----x-----3-----x-----0-----3-------------------|
Eb|---x--------------1-----x-----3-----1-----3-----x-----x-------------------|
      d  d u  u d u  d 

      Am    F     C     G5    F     G5    A     A     F     G

eb|---0-----1-----0-----3-----1-----3-----0-----0-----1-----3--3-3-x-x-x-x---|
Bb|---1-----1-----1-----3-----1-----3-----1-----1-----1-----3--3-3-x-x-x-x---|
Gb|---2-----2-----0-----0-----2-----0-----2-----2-----2-----0--0-0-x-x-x-x---|
Db|---2-----3-----2-----0-----3-----0-----2-----2-----3-----0--0-0-x-x-x-x---|
Ab|---0-----3-----3-----x-----3-----x-----0-----0-----3-----x--x-x-x-x-x-x---|
Eb|---x-----1-----x-----3-----1-----3-----x-----x-----1-----3--3-3-x-x-x-x---|
                                                            d  d u d u d u


Verse II:

      Am             Asus2          F              C       G

eb|---0--0-0--0-0-0--0--0-0--0-0-0--x--x-x--x-x-x--0--0-0--x--x-x------------|
Bb|---1--1-1--1-1-1--0--0-0--0-0-0--x--x-x--x-x-x--1--1-1--x--x-x------------|
Gb|---2--2-2--2-2-2--2--2-2--2-2-2--2--2-2--2-2-2--0--0-0--4--4-4------------|
Db|---2--2-2--2-2-2--2--2-2--2-2-2--3--3-3--3-3-3--2--2-2--5--5-5------------|
Ab|---0--0-0--0-0-0--0--0-0--0-0-0--3--3-3--3-3-3--3--3-3--5--5-5------------|
Eb|---x--x-x--x-x-x--x--x-x--x-x-x--1--1-1--1-1-1--x--x-x--3--3-3------------|


      Am             Asus2          F              G

eb|---0--0-0--0-0-0--0--0-0--0-0-0--x--x-x--x-x-x--x--x-x--x-x-x-------------|
Bb|---1--1-1--1-1-1--0--0-0--0-0-0--x--x-x--x-x-x--x--x-x--x-x-x-------------|
Gb|---2--2-2--2-2-2--2--2-2--2-2-2--2--2-2--2-2-2--4--4-4--4-4-4-------------|
Db|---2--2-2--2-2-2--2--2-2--2-2-2--3--3-3--3-3-3--5--5-5--5-5-5-------------|
Ab|---0--0-0--0-0-0--0--0-0--0-0-0--3--3-3--3-3-3--5--5-5--5-5-5-------------|
Eb|---x--x-x--x-x-x--x--x-x--x-x-x--1--1-1--1-1-1--3--3-3--3-3-3-------------|


      Am             Asus2          F              C       G

eb|---0--0-0--0-0-0--0--0-0--0-0-0--x--x-x--x-x-x--0--0-0--x--x-x------------|
Bb|---1--1-1--1-1-1--0--0-0--0-0-0--x--x-x--x-x-x--1--1-1--x--x-x------------|
Gb|---2--2-2--2-2-2--2--2-2--2-2-2--2--2-2--2-2-2--0--0-0--4--4-4------------|
Db|---2--2-2--2-2-2--2--2-2--2-2-2--3--3-3--3-3-3--2--2-2--5--5-5------------|
Ab|---0--0-0--0-0-0--0--0-0--0-0-0--3--3-3--3-3-3--3--3-3--5--5-5------------|
Eb|---x--x-x--x-x-x--x--x-x--x-x-x--1--1-1--1-1-1--x--x-x--3--3-3------------|


eb|--------------------------------------------------------------------------|
Bb|--------------------------------------------------------------------------|
Gb|---2--4---x-4-------5---5-4-----------2------4---x-4-------5-5-5-5-5-7----|
Db|---x------x-x-------x---x-x----7--5---x----------x-x-------5-5-5-5-5-5----|
Ab|---3------x-5-------5---5-5----5--5---3----------x-5----------------------|
Eb|---1------x-3-------3---3-3----3--3---1----------x-3----------------------|



Chorus:

      Am             F     C     G5    F     G5    A     C     

eb|---0--------------1-----0-----3-----1-----3-----0-----0-------------------|
Bb|---1--------------1-----1-----3-----1-----3-----1-----1-------------------|
Gb|---2--------------2-----0-----0-----2-----0-----2-----0-------------------|
Db|---2--------------3-----2-----0-----3-----0-----2-----2-------------------|
Ab|---0--------------3-----3-----x-----3-----x-----0-----3-------------------|
Eb|---x--------------1-----x-----3-----1-----3-----x-----x-------------------|
      d  d u  u d u  d 

      Am    F     C     G5    F     G5    A     A     

eb|---0-----1-----0-----3-----1-----3-----0-----0----------------------------|
Bb|---1-----1-----1-----3-----1-----3-----1-----1----------------------------|
Gb|---2-----2-----0-----0-----2-----0-----2-----2----------------------------|
Db|---2-----3-----2-----0-----3-----0-----2-----2----------------------------|
Ab|---0-----3-----3-----x-----3-----x-----0-----0----------------------------|
Eb|---x-----1-----x-----3-----1-----3-----x-----x----------------------------|



eb|---0-0-0------------------------------------------------------------------|
Bb|---1-1-1--0-0-0-0-0-0-0-0-0-0-0-0-0---------------------------------------|
Gb|---2-2-2--2-2-2-2-2-2-2-2-2-2-2-2-2--4-4-4--4-4-4-4-4-4-5-5-5-5-4-4-4-----|
Db|---2-2-2--2-2-2-2-2-2-2-2-2-2-2-2-2--x-x-x--x-x-x-x-x-x-x-x-x-x-x-x-x-----|
Ab|---0-0-0~~~~~~~~~~~~~~~~~~~~~~~~~~~--5-5-5--5-5-5-5-5-5-5-5-5-5-5-5-5-----|
Eb|---x-x-x-----------------------------3-3-3--3-3-3-3-3-3-3-3-3-3-3-3-3-----|


eb|--------------------------------------------------------------------------|
Bb|--------------------------------------------------------------------------|
Gb|---2-2-2--2-2-2-2-2-2-4-4-4-4-5-5-5--4-4-4--4-4-4-4-4-4-5-5-5-5-4-4-4-----|
Db|---x-x-x--x-x-x-x-x-x-x-x-x-x-x-x-x--x-x-x--x-x-x-x-x-x-x-x-x-x-x-x-x-----|
Ab|---3-3-3--3-3-3-3-3-3-3-3-3-3-3-3-3--5-5-5--5-5-5-5-5-5-5-5-5-5-5-5-5-----|
Eb|---1-1-1--1-1-1-1-1-1-1-1-1-1-1-1-1--3-3-3--3-3-3-3-3-3-3-3-3-3-3-3-3-----|


eb|---0-0-0------------------------------------------------------------------|
Bb|---1-1-1--0-0-0-0-0-0-0-0-0-0-0-0-0---------------------------------------|
Gb|---2-2-2--2-2-2-2-2-2-2-2-2-2-2-2-2--2-2-2--2-2-2-2-2-2-2-2-2-2-2-2-2-----|
Db|---2-2-2--2-2-2-2-2-2-2-2-2-2-2-2-2--2-2-2--2-2-2-2-2-2-2-2-2-2-2-2-2-----|
Ab|---0-0-0~~~~~~~~~~~~~~~~~~~~~~~~~~~--0-0-0--0-0-0-0-0-0-0-0-0-0-0-0-0-----|
Eb|---x-x-x-----------------------------4-4-4--4-4-4-4-4-4-4-4-4-4-4-4-4-----|


eb|--------------------------------------------------------------------------|
Bb|--------------------------------------------------------------------------|
Gb|---2-2-2--2-2-2-2-2-2-4-4-4-4-4-4-4--4-4-4--4-4-4-4-4-4-4-4-4-4-4-4-4-----|
Db|---x-x-x--x-x-x-x-x-x-x-x-x-x-x-x-x--x-x-x--x-x-x-x-x-x-x-x-x-x-x-x-x-----|
Ab|---3-3-3--3-3-3-3-3-3-3-3-3-3-3-3-3--5-5-5--5-5-5-5-5-5-5-5-5-5-5-5-5-----|
Eb|---1-1-1--1-1-1-1-1-1-1-1-1-1-1-1-1--3-3-3--3-3-3-3-3-3-3-3-3-3-3-3-3-----|


eb|--------------------------------------------------------------------------|
Bb|--------------------------------------------------------------------------|
Gb|---2--4---x-4-------5---5-4----------2------4---x-4-------5-5-5-5-5-4-----|
Db|---x------x-x-------x---x-x---7--5---x----------x-x-------5-5-5-5-5-5-----|
Ab|---3------x-5-------5---5-5---5--5---3----------x-5-----------------------|
Eb|---1------x-3-------3---3-3---3--3---1----------x-3-----------------------|


Am                   F     C     G5    F     G5    A     C     

eb|---0--------------1-----0-----3-----1-----3-----0-----0-------------------|
Bb|---1--------------1-----1-----3-----1-----3-----1-----1-------------------|
Gb|---2--------------2-----0-----0-----2-----0-----2-----0-------------------|
Db|---2--------------3-----2-----0-----3-----0-----2-----2-------------------|
Ab|---0--------------3-----3-----x-----3-----x-----0-----3-------------------|
Eb|---x--------------1-----x-----3-----1-----3-----x-----x-------------------|
      d  d u  u d u  d 

      Am    F     C     G5    F     G5    A     A     

eb|---0-----1-----0-----3-----1-----3-----0-----0----------------------------|
Bb|---1-----1-----1-----3-----1-----3-----1-----1----------------------------|
Gb|---2-----2-----0-----0-----2-----0-----2-----2----------------------------|
Db|---2-----3-----2-----0-----3-----0-----2-----2----------------------------|
Ab|---0-----3-----3-----x-----3-----x-----0-----0----------------------------|
Eb|---x-----1-----x-----3-----1-----3-----x-----x----------------------------|
Suggest correction
comments
print report bad tab
2 comments total.
0 reply
Dlarahasle 10 Feb 27, 2013 04:17 PM

My ear says that there is something wrong with the part: "I just left in the middle of the night...." That is the pre-chorus, or whatever.

After the Emaj chord at the beginning I hear Gb note, right before the Fmaj chord. However, I'm not one-hundred percent sure about it.

-1 reply
Will-o-the-wisp 61 Feb 28, 2013 02:11 PM

Well I don't hear anything like that yet I never claimed this tab to be perfect. Perhaps you hear Gb cause of the vocal. But I'm not sure about that part anymore. You might be right and I would appreciate someone else's opinion.

guest
You may want to rate the tab now too:
select rating
Wanna post a correction for this tab? Suggest correction