Oops, an error
Loading. Please wait.

Medication Tab

version 1
version 1

Whole song

1,459 views 1 this week
no commentswrite comment
1 2 3 4 5
please rate
add to favorites
launch autoscroll
font size
0
reset
how to read this tab
guitar tuner
Autoscroll
slow
fast
+/-
esc
set tempo
stop
Help us to improve Ultimate-Guitar.com Take our survey!
×
Author
Difficulty
Tuning
intermediate
C# G# C# F# A# D#
OK so from what i know this is the first of this tab on the internet. if you go to my 
profile i have tabbed many more songs from this album and im trying to tab it all

Silverstein - Medication

Tuning Drop C#
Opening
D#|--------0-1---------------8-6---8-5b-(6)(5)---|
A#|------------1-----------------6---------------|
F#|----------------------------------------------|X4
C#|-0-0-0-------------8-8-8----------------------|
G#|-0-0-0-------------8-8-8----------------------|
C#|-0-0-0-------------8-8-8----------------------|

verse 1
D#|--------------------------------------------------------------------------|
A#|--------------------------------------------------------------------------|
F#|--------------------------------------------------------------12-12-12-12-|
C#|--10-xxxx-10-xxxx-10-xx-10-xxxx-10-xxxx-10-xx-10101010-101010--x--x--x--x-|
G#|---8-xxxx--8-xxxx--8-xx--7-xxxx--7-xxxx--7-xx--8-8-8-8--8-8-8-10-10-10-10-|
C#|--------------------------------------------------------------------------|
Do that  X2!!!!

Verse 1 pt 2
D#|------------------------------------|
A#|------------------------------------|
F#|------------------------------------|
C#|-0-0-0-0-0-0-0-0--8-8-8-8-8-8-8-8---|X3
G#|-0-0-0-0-0-0-0-0--8-8-8-8-8-8-8-8---|
C#|-0-0-0-0-0-0-0-0--8-8-8-8-8-8-8-8---|

little fill after
D#|-------------------------------------------------------------------------|
A#|-------------------------------------------------------------------------|
F#|10101010-9-9-9-910101010--12-12-12-12------------------------------------|
C#|-x-x-x-x-x-x-x-x-x-x-x-x---x--x--x--x------------------------------------|
G#|-8-8-8-8-7-7-7-7-8-8-8-8--10-10-10-10------------------------------------|
C#|-------------------------------------------------------------------------|

 THIS IS WHERE THE SONG STARTS TO REPEAT ITSSELF

verse 1
D#|--------------------------------------------------------------------------|
A#|--------------------------------------------------------------------------|
F#|--------------------------------------------------------------12-12-12-12-|
C#|--10-xxxx-10-xxxx-10-xx-10-xxxx-10-xxxx-10-xx-10101010-101010--x--x--x--x-|
G#|---8-xxxx--8-xxxx--8-xx--7-xxxx--7-xxxx--7-xx--8-8-8-8--8-8-8-10-10-10-10-|
C#|--------------------------------------------------------------------------|
Do that  X2!!!!

Verse 1 pt 2
D#|------------------------------------|
A#|------------------------------------|
F#|------------------------------------|
C#|-0-0-0-0-0-0-0-0--8-8-8-8-8-8-8-8---|X3
G#|-0-0-0-0-0-0-0-0--8-8-8-8-8-8-8-8---|
C#|-0-0-0-0-0-0-0-0--8-8-8-8-8-8-8-8---|

little fill after
D#|-------------------------------------------------------------------------|
A#|-------------------------------------------------------------------------|
F#|10101010-9-9-9-910101010--12-12-12-12------------------------------------|
C#|-x-x-x-x-x-x-x-x-x-x-x-x---x--x--x--x------------------------------------|
G#|-8-8-8-8-7-7-7-7-8-8-8-8--10-10-10-10------------------------------------|
C#|-------------------------------------------------------------------------|

----------------------------------------------------------------------------

CHORUS
D#|-----------------------------------------------------------------|
A#|-----------------------------------------------------------------|
F#|--------------------------------------------7-/10----------------|
C#|--7h8p7p0-0-7h8p7-0-0-------------------------/------------------|
G#|-----------------------5h8p5-4-4-5h8p5-4-4--5-/-8----------------|
C#|-----------------------------------------------------------------|

D#|------------------------------------------|
A#|------------------------------------------|
F#|------------------------------------------|
C#|-3---6-----3---6-----3---6----------------| DO THE WHOLE CHORUS X2
G#|-5-/-8-----5-/-8-----5-/-8--5T--8T--7T----|
C#|-------0-0-------0-0--------5T--8T--7T----|


verse 1
D#|--------------------------------------------------------------------------|
A#|--------------------------------------------------------------------------|
F#|--------------------------------------------------------------12-12-12-12-|
C#|--10-xxxx-10-xxxx-10-xx-10-xxxx-10-xxxx-10-xx-10101010-101010--x--x--x--x-|
G#|---8-xxxx--8-xxxx--8-xx--7-xxxx--7-xxxx--7-xx--8-8-8-8--8-8-8-10-10-10-10-|
C#|--------------------------------------------------------------------------|
Do that X2 !!!!

Verse 1 pt 2
D#|------------------------------------|
A#|------------------------------------|
F#|------------------------------------|
C#|-0-0-0-0-0-0-0-0--8-8-8-8-8-8-8-8---|X3
G#|-0-0-0-0-0-0-0-0--8-8-8-8-8-8-8-8---|
C#|-0-0-0-0-0-0-0-0--8-8-8-8-8-8-8-8---|

little fill after
D#|-------------------------------------------------------------------------|
A#|-------------------------------------------------------------------------|
F#|10101010-9-9-9-910101010--12-12-12-12------------------------------------|
C#|-x-x-x-x-x-x-x-x-x-x-x-x---x--x--x--x------------------------------------|
G#|-8-8-8-8-7-7-7-7-8-8-8-8--10-10-10-10------------------------------------|
C#|-------------------------------------------------------------------------|

----------------------------------------------------------------------------

CHORUS
D#|-----------------------------------------------------------------|
A#|-----------------------------------------------------------------|
F#|--------------------------------------------7-/10----------------|
C#|--7h8p7p0-0-7h8p7-0-0-------------------------/------------------|
G#|-----------------------5h8p5-4-4-5h8p5-4-4--5-/-8----------------|
C#|-----------------------------------------------------------------|

D#|------------------------------------------|
A#|------------------------------------------|
F#|------------------------------------------|
C#|-3---6-----3---6-----3---6----------------| DO THE WHOLE CHORUS X2
G#|-5-/-8-----5-/-8-----5-/-8--5T--8T--7T----|
C#|-------0-0-------0-0--------5T--8T--7T----|



D#|--------------------------------------------------------------|
A#|--------------------------------------------------------------|
F#|--7--10--7-7--7--10--7-7--10-10-10-10-10-10--8--8--8--8-------|
C#|--------------------------------------------------------------|X2
G#|--5-/-8--5-5--5-/-8--5-5--12-12-12-12-12-12-10-10-10-10-------|
C#|--------------------------------------------------------------|

D#|-------------------------------------------------------------------------|
A#|-------------------------------------------------------------------------|
F#|-15-15-15-15-15-15-14-14-14-14-14-12-12-12-12-10-10-10-10----------------|
C#|-------------------------------------------------------------------------|
G#|-13-13-13-13-13-13-12-12-12-12-12-10-10-10-10--8--8--8--8----------------|
C#|-------------------------------------------------------------------------|

D#|-------------------------------------------------------------------------|
A#|-------------------------------------------------------------------------|
F#|-15-15-15-15-15-15-14-14-14-14-14-12-12-12-12-14-14-14-14----------------|
C#|-------------------------------------------------------------------------|
G#|-13-13-13-13-13-13-12-12-12-12-12-10-10-10-10-12-12-12-12----------------|
C#|-------------------------------------------------------------------------|


D#|--------------------------------------------------------------|
A#|--------------------------------------------------------------|
F#|--7--10--7-7--7--10--7-7--10-10-10-10-10-10--8--8--8--8-------|
C#|--------------------------------------------------------------|X2
G#|--5-/-8--5-5--5-/-8--5-5--12-12-12-12-12-12-10-10-10-10-------|
C#|--------------------------------------------------------------|

D#|-------------------------------------------------------------------------|
A#|-------------------------------------------------------------------------|
F#|-15-15-15-15-15-15-14-14-14-14-14-12-12-12-12-10-10-10-10----------------|
C#|-------------------------------------------------------------------------|
G#|-13-13-13-13-13-13-12-12-12-12-12-10-10-10-10--8--8--8--8----------------|
C#|-------------------------------------------------------------------------|

D#|-------------------------------------------------------------------------|
A#|-------------------------------------------------------------------------|
F#|-15-15-15-15-15-15-14-14-14-14-14-12-12-12-12-14-14-14-14----------------|
C#|-------------------------------------------------------------------------|
G#|-13-13-13-13-13-13-12-12-12-12-12-10-10-10-10-12-12-12-12----------------|
C#|-------------------------------------------------------------------------|

D#|-------------------------------------------------------------------------|
A#|-------------------------------------------------------------------------|
F#|-15-15-15-15-15-15-14-14-14-14-14-12-12-12-12-10-10-10-10----------------|
C#|-------------------------------------------------------------------------|
G#|-13-13-13-13-13-13-12-12-12-12-12-10-10-10-10--8--8--8--8----------------|
C#|-------------------------------------------------------------------------|

D#|-------------------------------------------------------------------------|
A#|-------------------------------------------------------------------------|
F#|-15-15-15-15-15-15-14-14-14-14-14-12-12-12-12-14-14-14-14~---------------|
C#|-------------------------------------------------------------------------|
G#|-13-13-13-13-13-13-12-12-12-12-12-10-10-10-10-12-12-12-12~---------------|
C#|-------------------------------------------------------------------------|

iNTERLUDE THING
D#|--------------------------------------------------------------------------|
A#|--------------------------------------------------------------------------|
F#|----------10-------9--------9--------9--------------------10-----9-----12-|
C#|-----10------10-------10-------10-------10----------10-------10----10-----|
G#|-8-8----8-------8---------8--------8--------8-----8----8--------8-----8---|
C#|------------------------------------------------8-------------------------|
THat X4

D#|--------------------------------------------|
A#|--------------------------------------------|
F#|--9--10--9--10----------9--10--9------------|
C#|----------------------------------10--------|THAT TILL END OF SONG
G#|--------------------------------------------|
C#|--------------------------------------------|


THANKS FOR PLAYING GO TO MY PROFILE FOR PL:ENTY MORESILVERSTEIN TABS FROM THE ALBUM RESCUE
Suggest correction
Give kudos to tab author, rate the tab!
1 2 3 4 5
comments
print report bad tab
guest
You may want to rate the tab now too:
select rating
Please do not post tabs as comments. Select "correction" instead!