Oops, an error
Loading. Please wait.
We have Chord Pro version of Mirror Box.
It's the closest thing you can get to the original song and it has interactive parts. Check out the tab »
×
154 views 3 this week
no commentswrite comment
1 2 3 4 5
3 more votes to show rating
add to favorites
×
Save as Personal and add changes to this tab that will be seen only by you. Learn more ›
×
You can save this tab as Personal to edit and correct it or add notes. All changes will be seen only by you. Learn more »
launch autoscroll
font size
0
reset
how to read this tab
guitar tuner
edit
Autoscroll
slow
fast
+/-
esc
set tempo
stop
Tabbed by: Joshua Garcia (joshuag523@aol.com)

Tabs for the song: Mirror Box by Silverstein
Please rate and let me know if you have any corrections. Thank you.


Guitar 1 - Left Speaker
Guitar 2 - Right Speaker


Tuning: Drop C (C G C F A D)


[Intro]
Guitar 1:
D||------------------------------------------------------------------|
A||------------------------------------------------------------------|
F||----------9----9-------------9---9-------------9---9--------------|
C||--2-2-2-2-x----x---2-2-2-2-2-x---x---2-2-2-2-2-x---x---2-2-2-2-2--|
G||--2-2-2-2-7----7---2-2-2-2-2-7---7---2-2-2-2-2-7---7---2-2-2-2-2--|
C||--2-2-2-2----------2-2-2-2-2---------2-2-2-2-2---------2-2-2-2-2--|



[Pre-Verse]
Guitar 1/2:
D||------------------------------------------------------------------------|
A||------------------------------------------------------------------------|
F||----------9----9-------------9---9-------------9---9-------------9---9--|
C||--2-2-2-2-x----x---2-2-2-2-2-x---x---0-2-2-2-2-x---x---2-2-2-2-2-x---x--|
G||--2-2-2-2-7----7---2-2-2-2-2-7---7---0-2-2-2-2-7---7---2-2-2-2-2-7---7--|
C||--2-2-2-2----------2-2-2-2-2---------0-2-2-2-2---------2-2-2-2-2--------|


D||-----------------------------------------------------------------|
A||-----------------------------------------------------------------|
F||--5-5-5-5-7---7---5-5-5-5-5-7---7---7---------5---5---5----------|
C||--5-5-5-5-x---x---5-5-5-5-5-x---x---x-7-7-7-7-x---x---x-0-0-0-0--|
G||--3-3-3-3-5---5---3-3-3-3-3-5---5---5-7-7-7-7-3---3---3-0-0-0-0--|
C||--------------------------------------7-7-7-7-----------0-0-0-0--|


Guitar 1:
D||----------|
A||----------|
F||--12--11--|
C||--x---x---|
G||--10--9---|
C||----------|


Guitar 2:
D||----------|
A||----------|
F||--16--14--|
C||--x---x---|
G||--14--12--|
C||----------|



[Verse]
Guitar 1:
D||-------------------------------------------------------|
A||-------------------------------------------------------|
F||------------0-------------------------0----------------|
C||-----2-------------2-----------2-------------2---------|
G||-------------------------------------------------------|
C||--2-------------------------2--------------------------|


D||-------------------------------------------------------|
A||------------0-------------------------0----------------|
F||----------------------------------------------------2--|
C||-----5-------------5-----------5-------------5---------| [x2]
G||--3-------------------------3--------------------------|
C||-------------------------------------------------------|


Guitar 2:
D||---------------------------------------------------|
A||---------------------------------------------------|
F||-------------------7-------------------------7-----|
C||-------9-------------------------9-----------------|
G||--10-------10---------------10-------10------------|
C||---------------------------------------------------|


D||---------------------------------------------------|
A||---------------------------------------------------|
F||-----------------4-----------------------4------4--|
C||------5-----------------------5--------------------| [x2]
G||--7-------7---------------7-------7----------------|
C||---------------------------------------------------|



[Pre-Chorus]
Guitar 1:
D||-----------------------------|-------0-----------------|
A||-----------------------------|------------3------------|
F||-----------------------------|-----------------5----4--|
C||-----------------------------|-------------------------|
G||-----------------------------|--3----------------------|
C||-----------------------------|-------------------------|


Guitar 2:
D||-----------------------------|-------------------------|
A||-----------------------------|-------------------------|
F||------------5------2---------|-------------------------|
C||-----2-----------------------|-------------------------|
G||--0-----------------------2--|--3----------------------|
C||-----------------------------|-------------------------|



[Chorus]
Guitar 1/2:
D||-------------------------------------------------------------------------|
A||-------------------------------------------------------------------------|
F||----------9----9-------------9---9-------------9---9-------------9---9---|
C||--2-2-2-2-x----x---2-2-2-2-2-x---x---0-2-2-2-2-x---x---2-2-2-2-2-x---x---|
G||--2-2-2-2-7----7---2-2-2-2-2-7---7---0-2-2-2-2-7---7---2-2-2-2-2-7---7---|
C||--2-2-2-2----------2-2-2-2-2---------0-2-2-2-2---------2-2-2-2-2---------|


D||-------------------------------------------------------------------------|
A||-------------------------------------------------------------------------|
F||--5-5-5-5-7---7---5-5-5-5-5-7---7---7---------5---5---5---------4-4-4-4--|
C||--5-5-5-5-x---x---5-5-5-5-5-x---x---x-7-7-7-7-x---x---x-0-0-0-0-x-x-x-x--|
G||--3-3-3-3-5---5---3-3-3-3-3-5---5---5-7-7-7-7-3---3---3-0-0-0-0-2-2-2-2--|
C||--------------------------------------7-7-7-7-----------0-0-0-0----------|


Guitar 1:
D||------------------------------------------------------------------------|
A||------------------------------------------------------------------------|
F||----------9----9-------------9---9-------------9---9-------------9---9--|
C||--2-2-2-2-x----x---2-2-2-2-2-x---x---0-2-2-2-2-x---x---2-2-2-2-2-x---x--|
G||--2-2-2-2-7----7---2-2-2-2-2-7---7---0-2-2-2-2-7---7---2-2-2-2-2-7---7--|
C||--2-2-2-2----------2-2-2-2-2---------0-2-2-2-2---------2-2-2-2-2--------|


D||------------------------------------------------------------------------|
A||------------------------------------------------------------------------|
F||--5-5-5-5-7---7---5-5-5-5-5-7---7---7---------5---5---5---------12--11--|
C||--5-5-5-5-x---x---5-5-5-5-5-x---x---x-7-7-7-7-x---x---x-0-0-0-0-x---x---|
G||--3-3-3-3-5---5---3-3-3-3-3-5---5---5-7-7-7-7-3---3---3-0-0-0-0-10--9---|
C||--------------------------------------7-7-7-7-----------0-0-0-0---------|


Guitar 2:
D||--------------------------------------------------------------------------|
A||--------------------------------------------------------------------------|
F||----------12---12------------12--12------------12--12------------12--12---|
C||--2-2-2-2-x----x---2-2-2-2-2-x---x---0-2-2-2-2-x---x---2-2-2-2-2-x---x----|
G||--2-2-2-2-10---10--2-2-2-2-2-10--10--0-2-2-2-2-10--10--2-2-2-2-2-10--10---|
C||--2-2-2-2----------2-2-2-2-2---------0-2-2-2-2---------2-2-2-2-2----------|


D||--------------------------------------------------------------------------|
A||--------------------------------------------------------------------------|
F||--5-5-5-5-16--16--5-5-5-5-5-16--16--16---------14--14--14---------16--14--|
C||--5-5-5-5-x---x---5-5-5-5-5-x---x---x--7-7-7-7-x---x---x--0-0-0-0-x---x---|
G||--3-3-3-3-14--14--3-3-3-3-3-14--14--14-7-7-7-7-12--12--12-0-0-0-0-14--12--|
C||---------------------------------------7-7-7-7------------0-0-0-0---------|



[Verse]
Guitar 1:
D||-------------------------------------------------------|
A||-------------------------------------------------------|
F||------------0-------------------------0----------------|
C||-----2-------------2-----------2-------------2---------|
G||-------------------------------------------------------|
C||--2-------------------------2--------------------------|


D||-------------------------------------------------------|
A||------------0-------------------------0----------------|
F||----------------------------------------------------2--|
C||-----5-------------5-----------5-------------5---------| [x2]
G||--3-------------------------3--------------------------|
C||-------------------------------------------------------|


Guitar 1 (Dub):
D||-------------------------------------------------------------------|
A||-------------------------------------------------------------------|
F||-------------------------------------------------------------------|
C||-------------------------------------------------------------------| x2
G||--7-7-7-7-7-7-7-7-7-7-7-7-7-7-7-7-7-7-7-7-7-7-7-7-7-7-7-7-7-7-7-7--|
C||-------------------------------------------------------------------|
     . . . . . . . . . . . . . . . . . . . . . . . . . . . . . . . .


D||-------------------------------------------------------------------|
A||-------------------------------------------------------------------|
F||-------------------------------------------------------------------|
C||--5-5-5-5-5-5-5-5-5-5-5-5-5-5-5-5-5-5-5-5-5-5-5-5-5-5-5-5-5-5-5-5--| x2
G||-------------------------------------------------------------------|
C||-------------------------------------------------------------------|
     . . . . . . . . . . . . . . . . . . . . . . . . . . . . . . . .


Guitar 2:
D||---------------------------------------------------|
A||---------------------------------------------------|
F||-------------------7-------------------------7-----|
C||-------9-------------------------9-----------------|
G||--10-------10---------------10-------10------------|
C||---------------------------------------------------|


D||---------------------------------------------------|
A||---------------------------------------------------|
F||-----------------4-----------------------4------4--|
C||------5-----------------------5--------------------| [x2]
G||--7-------7---------------7-------7----------------|
C||---------------------------------------------------|



[Pre-Chorus]
Guitar 1:
D||---------------------------------------------------------------|
A||---------------------------------------------------------------|
F||--------------------------------------------------4-4-4-4-4-4--|
C||----------------------------------5-5-5-5-5-5-5-5-5-5-5-5-5-5--|
G||--0-0-0-0-0-0-0-0-0-0-0-0-0-0-0-0-3-3-3-3-3-3-3-3-3-3-3-3-3-3--|
C||---------------------------------------------------------------|
     . . . . . . . . . . . . . . . . . . . . . . . .


Guitar 2:
D||---------------------------------------------------------------|
A||---------------------------------------------------------------|
F||----------------------------------------------------------4-4--|
C||----------------------------------------------------------5-5--|
G||----------------------------------------------------------3-3--|
C||---------------------------------------------------------------|



[Chorus]
Guitar 1/2:
D||-------------------------------------------------------------------------|
A||-------------------------------------------------------------------------|
F||----------9----9-------------9---9-------------9---9-------------9---9---|
C||--2-2-2-2-x----x---2-2-2-2-2-x---x---0-2-2-2-2-x---x---2-2-2-2-2-x---x---|
G||--2-2-2-2-7----7---2-2-2-2-2-7---7---0-2-2-2-2-7---7---2-2-2-2-2-7---7---|
C||--2-2-2-2----------2-2-2-2-2---------0-2-2-2-2---------2-2-2-2-2---------|


D||-------------------------------------------------------------------------|
A||-------------------------------------------------------------------------|
F||--5-5-5-5-7---7---5-5-5-5-5-7---7---7---------5---5---5---------4-4-4-4--|
C||--5-5-5-5-x---x---5-5-5-5-5-x---x---x-7-7-7-7-x---x---x-0-0-0-0-x-x-x-x--|
G||--3-3-3-3-5---5---3-3-3-3-3-5---5---5-7-7-7-7-3---3---3-0-0-0-0-2-2-2-2--|
C||--------------------------------------7-7-7-7-----------0-0-0-0----------|


Guitar 1:
D||------------------------------------------------------------------------|
A||------------------------------------------------------------------------|
F||----------9----9-------------9---9-------------9---9-------------9---9--|
C||--2-2-2-2-x----x---2-2-2-2-2-x---x---0-2-2-2-2-x---x---2-2-2-2-2-x---x--|
G||--2-2-2-2-7----7---2-2-2-2-2-7---7---0-2-2-2-2-7---7---2-2-2-2-2-7---7--|
C||--2-2-2-2----------2-2-2-2-2---------0-2-2-2-2---------2-2-2-2-2--------|


D||------------------------------------------------------------------------|
A||------------------------------------------------------------------------|
F||--5-5-5-5-7---7---5-5-5-5-5-7---7---7---------5---5---5---------12--11--|
C||--5-5-5-5-x---x---5-5-5-5-5-x---x---x-7-7-7-7-x---x---x-0-0-0-0-x---x---|
G||--3-3-3-3-5---5---3-3-3-3-3-5---5---5-7-7-7-7-3---3---3-0-0-0-0-10--9---|
C||--------------------------------------7-7-7-7-----------0-0-0-0---------|


Guitar 2:
D||--------------------------------------------------------------------------|
A||--------------------------------------------------------------------------|
F||----------12---12------------12--12------------12--12------------12--12---|
C||--2-2-2-2-x----x---2-2-2-2-2-x---x---0-2-2-2-2-x---x---2-2-2-2-2-x---x----|
G||--2-2-2-2-10---10--2-2-2-2-2-10--10--0-2-2-2-2-10--10--2-2-2-2-2-10--10---|
C||--2-2-2-2----------2-2-2-2-2---------0-2-2-2-2---------2-2-2-2-2----------|


D||--------------------------------------------------------------------------|
A||--------------------------------------------------------------------------|
F||--5-5-5-5-16--16--5-5-5-5-5-16--16--16---------14--14--14---------16--14--|
C||--5-5-5-5-x---x---5-5-5-5-5-x---x---x--7-7-7-7-x---x---x--0-0-0-0-x---x---|
G||--3-3-3-3-14--14--3-3-3-3-3-14--14--14-7-7-7-7-12--12--12-0-0-0-0-14--12--|
C||---------------------------------------7-7-7-7------------0-0-0-0---------|



[Bridge]
Guitar 1/2:
D||-----------------------------|-----------------------------|
A||------5---5-------5---5---5--|------5---5-------5---5---5--|
F||--x-x-x---x---x-x-x---x---x--|--x-x-x---x---x-x-x---x---x--|
C||--x-x-5---5---x-x-5---5---5--|--x-x-5---5---x-x-5---5---5--|
G||--x-x-3---3---x-x-3---3---3--|--x-x-3---3---x-x-3---3---3--|
C||-----------------------------|-----------------------------|


Guitar 2:
D||-----------------------------|-------------------------------|
A||-----------------------------|-------------------------------|
F||--x-x-11--11--x-x-11--11--11-|--x-x-14--14--x-x-19--16--16\--|
C||--x-x-x---x---x-x-x---x---x--|--x-x-x---x---x-x-x---x---x-\--|
G||--x-x-9---9---x-x-9---9---9--|--x-x-12--12--x-x-17--14--14\--|
C||-----------------------------|-------------------------------|


Guitar 1:
D||-----------------------------|-----------------------------|
A||------5---5-------5---5---5--|------5---5-------5---5---5--|
F||--x-x-x---x---x-x-x---x---x--|--x-x-x---x---x-x-x---x---x--|
C||--x-x-5---5---x-x-5---5---5--|--x-x-5---5---x-x-5---5---5--|
G||--x-x-3---3---x-x-3---3---3--|--x-x-3---3---x-x-3---3---3--|
C||-----------------------------|-----------------------------|



Guitar 2:
D||-------------------------------------------------------|
A||-------------------------------------------------------|
F||--12---12---12-12---12---12-----12-12-12-12---12---12--|
C||--x----x----x--x----x----x------x--x--x--x----x----x---|
G||--10---10---10-10---10---10-----10-10-10-10---10---10--|
C||-------------------------------------------------------|


D||-------------------------------------------------------|
A||-------------------------------------------------------|
F||--11---11---11-11---11---11-----11-11-11-11---11---11--|
C||--x----x----x--x----x----x------x--x--x--x----x----x---|
G||--10---10---10-10---10---10-----10-10-10-10---10---10--|
C||-------------------------------------------------------|


D||-------------------------------------------------|
A||-------------------------------------------------|
F||--9---9---9-9---9---9-11---11---11-11---11---11--|
C||--x---x---x-x---x---x-x----x----x--x----x----x---|
G||--7---7---7-7---7---7-9----9----9--9----9----9---|
C||-------------------------------------------------|


D||----------------------------------------------------------|
A||----------------------------------------------------------|
F||--16---16---16-16---16---16-----16-16-16-16/19---19---19--|
C||--x----x----x--x----x----x------x--x--x--x-/x----x----x---|
G||--14---14---14-14---14---14-----14-14-14-14/17---17---17--|
C||----------------------------------------------------------|


D||-------------------------------------------------------------|
A||-------------------------------------------------------------|
F||--19\14---14---14-14---14---14-----14-14-14-14/19---19---19--|
C||--x-\x----x----x--x----x----x------x--x--x--x-/x----x----x---|
G||--17\12---12---12-12---12---12-----12-12-12-12/17---17---17--|
C||-------------------------------------------------------------|


D||-------------------------------------------------------|
A||-------------------------------------------------------|
F||--16---16---16-16---16---16-11---11---11-11---11---11--|
C||--x----x----x--x----x----x--x----x----x--x----x----x---|
G||--14---14---14-14---14---14-9----9----9--9----9----9---|
C||-------------------------------------------------------|


Guitar 1:
D||-------------------------------------------|
A||--5---5---5-5---5---5-----5-5-5-5---5---5--|
F||--x---x---x-x---x---x-----x-x-x-x---x---x--|
C||--5---5---5-5---5---5-----5-5-5-5---5---5--|
G||--3---3---3-3---3---3-----3-3-3-3---3---3--|
C||-------------------------------------------|


D||-------------------------------------------|
A||--5---5---5-5---5---5-----5-5-5-5---5------|
F||--x---x---x-x---x---x-----x-x-x-x---x------|
C||--5---5---5-5---5---5-----5-5-5-5---5---0--|
G||--3---3---3-3---3---3-----3-3-3-3---3---0--|
C||----------------------------------------0--|


D||-------------------------------------------|
A||-------------------------------------------|
F||-------------------------------------------|
C||--3---3---3-3---3---3-0---0---0-0---0---0--| [x2]
G||--3---3---3-3---3---3-0---0---0-0---0---0--|
C||--3---3---3-3---3---3-0---0---0-0---0---0--|



[Pre-Chorus]
Guitar 2:
D||------|---------------------------------------------|
A||------|---------------------------------------------|
F||--9~--|--12-12-12-12-12-12-12-12-12-12-12-12-16-14--|
C||--x---|--x--x--x--x--x--x--x--x--x--x--x--x--x--x---|
G||--7~--|--10-10-10-10-10-10-10-10-10-10-10-10-14-12--|
C||------|---------------------------------------------|


Guitar 1:
D||------|-------------------------------|
A||------|-------------------------------|
F||--2~--|------------------5-5-5-5-5-5--|
C||--2~--|--5-5-5-5-5-5-5-5-5-5-5-5-5-5--|
G||--0~--|--3-3-3-3-3-3-3-3-3-3-3-3-3-3--|
C||------|-------------------------------|
            . . . . . . . .




[Chorus]
Guitar 1/2:
D||------------------------------------------------------------------------|
A||------------------------------------------------------------------------|
F||----------9----9-------------9---9-------------9---9-------------9---9--|
C||--2-2-2-2-x----x---2-2-2-2-2-x---x---0-2-2-2-2-x---x---2-2-2-2-2-x---x--|
G||--2-2-2-2-7----7---2-2-2-2-2-7---7---0-2-2-2-2-7---7---2-2-2-2-2-7---7--|
C||--2-2-2-2----------2-2-2-2-2---------0-2-2-2-2---------2-2-2-2-2--------|


D||-------------------------------------------------------------------------|
A||-------------------------------------------------------------------------|
F||--5-5-5-5-7---7---5-5-5-5-5-7---7---7---------5---5---5---------4-4-4-4--|
C||--5-5-5-5-x---x---5-5-5-5-5-x---x---x-7-7-7-7-x---x---x-0-0-0-0-x-x-x-x--|
G||--3-3-3-3-5---5---3-3-3-3-3-5---5---5-7-7-7-7-3---3---3-0-0-0-0-2-2-2-2--|
C||--------------------------------------7-7-7-7-----------0-0-0-0----------|


Guitar 1:
D||------------------------------------------------------------------------|
A||------------------------------------------------------------------------|
F||----------9----9-------------9---9-------------9---9-------------9---9--|
C||--2-2-2-2-x----x---2-2-2-2-2-x---x---0-2-2-2-2-x---x---2-2-2-2-2-x---x--|
G||--2-2-2-2-7----7---2-2-2-2-2-7---7---0-2-2-2-2-7---7---2-2-2-2-2-7---7--|
C||--2-2-2-2----------2-2-2-2-2---------0-2-2-2-2---------2-2-2-2-2--------|


D||-----------------------------------------------------------------|
A||-----------------------------------------------------------------|
F||--5-5-5-5-7---7---5-5-5-5-5-7---7---7---------5---5---5----------|
C||--5-5-5-5-x---x---5-5-5-5-5-x---x---x-7-7-7-7-x---x---x-0-0-0-0--|
G||--3-3-3-3-5---5---3-3-3-3-3-5---5---5-7-7-7-7-3---3---3-0-0-0-0--|
C||--------------------------------------7-7-7-7-----------0-0-0-0--|


Guitar 2:
D||--------------------------------------------------------------------------|
A||--------------------------------------------------------------------------|
F||----------12---12------------12--12------------12--12------------12--12---|
C||--2-2-2-2-x----x---2-2-2-2-2-x---x---0-2-2-2-2-x---x---2-2-2-2-2-x---x----|
G||--2-2-2-2-10---10--2-2-2-2-2-10--10--0-2-2-2-2-10--10--2-2-2-2-2-10--10---|
C||--2-2-2-2----------2-2-2-2-2---------0-2-2-2-2---------2-2-2-2-2----------|


D||-------------------------------------------------------------------|
A||-------------------------------------------------------------------|
F||--5-5-5-5-16--16--5-5-5-5-5-16--16--16---------14--14--14----------|
C||--5-5-5-5-x---x---5-5-5-5-5-x---x---x--7-7-7-7-x---x---x--0-0-0-0--|
G||--3-3-3-3-14--14--3-3-3-3-3-14--14--14-7-7-7-7-12--12--12-0-0-0-0--|
C||---------------------------------------7-7-7-7------------0-0-0-0--|



[Outro]
Guitar 1/2:
D||------------------------------------------------------------------|
A||------------------------------------------------------------------|
F||----------9----9-------------9---9-------------9---9---9----------|
C||--2-2-2-2-x----x---2-2-2-2-2-x---x---0-2-2-2-2-x---x---x-2-2-2-2--|
G||--2-2-2-2-7----7---2-2-2-2-2-7---7---0-2-2-2-2-7---7---7-2-2-2-2--|
C||--2-2-2-2----------2-2-2-2-2---------0-2-2-2-2-----------2-2-2-2--|





*****************************
-Tablature Legend-

h   hammer-on
p   pull-off
b   bend
pb  pre-bend
r   release bend
~   hold / vibrato
.   palm mute
/   slide up
\   slide down
*   pinch harmonic
'   natural harmonic
x   mute note
T   tap

*****************************

            
            
Suggest correction
Creating personal tab
Creating personal tab
You can edit any tab online and save it as your Personal.

You can edit, replace or remove any tab part or add personal notes – all changes will be seen only by you.

Personal tabs can be accessed anytime from any device, even offline.
Learn more »
Give kudos to tab author, rate the tab!
1 2 3 4 5
comments
print report bad tab
guest
You may want to rate the tab now too:
select rating
Wanna post a correction for this tab? Suggest correction