Oops, an error
Loading. Please wait.
We have Chord Pro version of Mirror Box.
It's the closest thing you can get to the original song and it has interactive parts. Check out the tab »
×
97 views 6 this week
no commentswrite comment
1 2 3 4 5
3 more votes to show rating
add to favorites
×
Save as Personal and add changes to this tab that will be seen only by you. Learn more ›
×
You can save this tab as Personal to edit and correct it or add notes. All changes will be seen only by you. Learn more »
launch autoscroll
font size
0
reset
how to read this tab
guitar tuner
edit
Autoscroll
slow
fast
+/-
esc
set tempo
stop
[Mirror Box]
[Dead Reflection]
[Silverstein]

Tuning: C G C F A D
Playthrough: https://www.youtube.com/watch?v=AC-2KXjdKlA

[Riff 1] - [00:00] - [00:09]
- -----------------------------------------------------------------------------
- -----------------------------------------------------------------------------
- ---------9---9br\------------9---9br\----------9---9br\----------------------
- -2-2-2/--x---x-----2-2-2-2/--x---x-----2-2-2/--x---x-----2-2-2-2-2-----------
- -2-2-2/--7---7br\--2-2-2-2/--7---7br\--2-2-2/--7---7br\--2-2-2-2-2-----------
- -2-2-2/------------2-2-2-2/------------2-2-2/------------2-2-2-2-2-----------


[Riff 2,Guitar 1 & 2]] - [00:09] - [00:23]
- -----------------------------------------------------------------------------
- -----------------------------------------------------------------------------
- ---------9---9br\------------9---9br\----------9---9br\------------9---9br\--
- -2-2-2/--x---x-----2-2-2-2/--x---x-----2-2-2/--x---x-----2-2-2-2/--x---x-----
- -2-2-2/--7---7br\--2-2-2-2/--7---7br\--2-2-2/--7---7br\--2-2-2-2/--7---7br\--
- -2-2-2/------------2-2-2-2/------------2-2-2/------------2-2-2-2/------------
-
- -----------------------------------------------------------------------------
- -----------------------------------------------------------------------------
- ---------9---9br\------------9---9br\----------9---9br\------------9---9br\--
- -2-2-2/--x---x-----2-2-2-2/--x---x-----2-2-2/--x---x-----2-2-2-2/--x---x-----
- -2-2-2/--7---7br\--2-2-2-2/--7---7br\--2-2-2/--7---7br\--2-2-2-2/--7---7br\--
- -2-2-2/------------2-2-2-2/------------2-2-2/------------2-2-2-2/------------


- -----------------------------------------------------------------------------
- -----------------------------------------------------------------8-\7--------
- ---------7---7br\------------7---7br\----------5---5---5---------x--x--------
- -5-5-5-5-x---x-----5-5-5-5-5-x---x-----2-2-2-2-x---x---x-0-0-0-0-5-\4--------
- -3-3-3-3-5---5br\--3-3-3-3-3-5---5br\--0-0-0-0-3---3---3-0-0-0-0-------------
- ---------------------------------------------------------0-0-0-0-------------
-
- -----------------------------------------------------------------------------
- -----------------------------------------------------------------12\10-------
- ---------7---7br\------------7---7br\----------5---5---5---------x--x--------
- -5-5-5-5-x---x-----5-5-5-5-5-x---x-----2-2-2-2-x---x---x-0-0-0-0-9-\7--------
- -3-3-3-3-5---5br\--3-3-3-3-3-5---5br\--0-0-0-0-3---3---3-0-0-0-0-------------
- ---------------------------------------------------------0-0-0-0-------------


[Riff 3, Guitar 1 & 2] - [00:23] - [00:52]
- -----------------------------------------------------------------
- -----------------------------------------------------------------
- -------------0-------------------------------0-------------------
- -----2---------------2---------------2---------------2-----------
- -----------------------------------------------------------------
- -2-------------------------------2-------------------------------
-
- -----------------------------------------------------------------
- ---------------------3-3-----3-3---------------------3-3-----3-3-
- -------4-------------------------------4-------------------------
- -5-----------5-------------------5-----------5-------------------
- -----------------------------------------------------------------
- -----------------------------------------------------------------


- -----------------------------------------------------------------
- -----------------------------------------------------------------
- -------------4-------------------------------4--------------2----
- -----5---------------5---------------5---------------5-----------
- -3-------------------------------3-------------------------------
- -----------------------------------------------------------------
-
- -----------------------------------------------------------------
- -----------------------------------------------------------------
- ---------------------4-4-----4-4---------------------4-4-----4-4-
- -------5-------------------------------5-------------------------
- -7-----------7-------------------7-----------7-------------------
- -----------------------------------------------------------------


[Riff 4, Guitar 1 & 2] - [00:52] - [00:59]
- -----------------------------------------------------------------
- ---------------------------------------5-----3-------------------
- ---------------------------------------------------5-----4-------
- -----------------------------------------------------------------
- -----------------------------------------------------------------
- -----------------------------------------------------------------
-
- -----------------------------------------------------------------
- -----------------------------------------------------------------
- -------------5-----2---------------------------------------------
- -------2---------------------------------------------------------
- -0-----------------------2-------3-------------------------------
- -----------------------------------------------------------------


[Riff 5, Guitar 1 & 2] - [00:59] - [01:27]
- -----------------------------------------------------------------------------
- -----------------------------------------------------------------------------
- ---------9---9br\------------9---9br\----------9---9br\------------9---9br\--
- -2-2-2/--x---x-----2-2-2-2/--x---x-----2-2-2/--x---x-----2-2-2-2/--x---x-----
- -2-2-2/--7---7br\--2-2-2-2/--7---7br\--2-2-2/--7---7br\--2-2-2-2/--7---7br\--
- -2-2-2/------------2-2-2-2/------------2-2-2/------------2-2-2-2/------------
-
- -----------------------------------------------------------------------------
- -----------------------------------------------------------------------------
- ---------9---9br\------------9---9br\----------9---9br\------------9---9br\--
- -2-2-2/--x---x-----2-2-2-2/--x---x-----2-2-2/--x---x-----2-2-2-2/--x---x-----
- -2-2-2/--7---7br\--2-2-2-2/--7---7br\--2-2-2/--7---7br\--2-2-2-2/--7---7br\--
- -2-2-2/------------2-2-2-2/------------2-2-2/------------2-2-2-2/------------


- -----------------------------------------------------------------------------
- -----------------------------------------------------------------------------
- ---------7---7br\------------7---7br\----------5---5---5---------4---4---4---
- -5-5-5-5-x---x-----5-5-5-5-5-x---x-----2-2-2-2-x---x---x-0-0-0-0-x---x---x---
- -3-3-3-3-5---5br\--3-3-3-3-3-5---5br\--0-0-0-0-3---3---3-0-0-0-0-2---2---2---
- ---------------------------------------------------------0-0-0-0-------------
-
- -----------------------------------------------------------------------------
- -----------------------------------------------------------------------------
- ---------7---7br\------------7---7br\----------5---5---5---------4---4---4---
- -5-5-5-5-x---x-----5-5-5-5-5-x---x-----2-2-2-2-x---x---x-0-0-0-0-x---x---x---
- -3-3-3-3-5---5br\--3-3-3-3-3-5---5br\--0-0-0-0-3---3---3-0-0-0-0-2---2---2---
- ---------------------------------------------------------0-0-0-0-------------


- -----------------------------------------------------------------------------
- -----------------------------------------------------------------------------
- ---------9---9br\------------9---9br\----------9---9br\------------9---9br\--
- -2-2-2/--x---x-----2-2-2-2/--x---x-----2-2-2/--x---x-----2-2-2-2/--x---x-----
- -2-2-2/--7---7br\--2-2-2-2/--7---7br\--2-2-2/--7---7br\--2-2-2-2/--7---7br\--
- -2-2-2/------------2-2-2-2/------------2-2-2/------------2-2-2-2/------------
-
- -----------------------------------------------------------------------------
- -----------------------------------------------------------------------------
- ---------12--12br\-----------12--12br\---------12--12br\-----------12--12br\-
- -2-2-2/--x---x-----2-2-2-2/--x---x-----2-2-2/--x---x-----2-2-2-2/--x---x-----
- -2-2-2/--10--10br\-2-2-2-2/--10--10br\-2-2-2/--10--10br\-2-2-2-2/--10--10br\-
- -2-2-2/------------2-2-2-2/------------2-2-2/------------2-2-2-2/------------


- -----------------------------------------------------------------------------
- -----------------------------------------------------------------8-\7--------
- ---------7---7br\------------7---7br\----------5---5---5---------x--x--------
- -5-5-5-5-x---x-----5-5-5-5-5-x---x-----2-2-2-2-x---x---x-0-0-0-0-5-\4--------
- -3-3-3-3-5---5br\--3-3-3-3-3-5---5br\--0-0-0-0-3---3---3-0-0-0-0-------------
- ---------------------------------------------------------0-0-0-0-------------
-
- -----------------------------------------------------------------------------
- ---------12--12br\-----------12--12br\---------10--10--10--------12\10-------
- ---------x---x---------------x---x-------------x---x---x---------x--x--------
- -5-5-5-5-9---9br-\-5-5-5-5-5-9---9br-\-2-2-2-2-7---7---7-0-0-0-0-9-\7--------
- -3-3-3-3-----------3-3-3-3-3-----------0-0-0-0-----------0-0-0-0-------------
- ---------------------------------------------------------0-0-0-0-------------


[Riff 3, Guitar 1 & 2] - [01:27] - [01:56]


[Riff 6, Guitar 1 & 2] - [01:56] - [02:03]
- -----------------------------------------------------------------
- -----------------------------------------------------------------
- -------------------------------------------------4-4-4-4-4-4-----
- -2-2-2-2-2-2-2-2-2-2-2-2-2-2-2-2-5-5-5-5-5-5-5-5-5-5-5-5-5-5-----
- -0-0-0-0-0-0-0-0-0-0-0-0-0-0-0-0-3-3-3-3-3-3-3-3-3-3-3-3-3-3-----
- -----------------------------------------------------------------
PM ...............................................
- -----------------------------------------------------------------
- -----------------------------------------------------------------
- ---------------------------------------------------------7-7-----
- ---------------------------------------------------------5-5-----
- ---------------------------------------------------------3-3-----
- -----------------------------------------------------------------


[Riff 5, Guitar 1 & 2] - [02:03] - [02:31]
- -----------------------------------------------------------------------------
- -----------------------------------------------------------------------------
- ---------9---9br\------------9---9br\----------9---9br\------------9---9br\--
- -2-2-2/--x---x-----2-2-2-2/--x---x-----2-2-2/--x---x-----2-2-2-2/--x---x-----
- -2-2-2/--7---7br\--2-2-2-2/--7---7br\--2-2-2/--7---7br\--2-2-2-2/--7---7br\--
- -2-2-2/------------2-2-2-2/------------2-2-2/------------2-2-2-2/------------
-
- -----------------------------------------------------------------------------
- -----------------------------------------------------------------------------
- ---------9---9br\------------9---9br\----------9---9br\------------9---9br\--
- -2-2-2/--x---x-----2-2-2-2/--x---x-----2-2-2/--x---x-----2-2-2-2/--x---x-----
- -2-2-2/--7---7br\--2-2-2-2/--7---7br\--2-2-2/--7---7br\--2-2-2-2/--7---7br\--
- -2-2-2/------------2-2-2-2/------------2-2-2/------------2-2-2-2/------------


- -----------------------------------------------------------------------------
- -----------------------------------------------------------------------------
- ---------7---7br\------------7---7br\----------5---5---5---------4---4---4---
- -5-5-5-5-x---x-----5-5-5-5-5-x---x-----2-2-2-2-x---x---x-0-0-0-0-x---x---x---
- -3-3-3-3-5---5br\--3-3-3-3-3-5---5br\--0-0-0-0-3---3---3-0-0-0-0-2---2---2---
- ---------------------------------------------------------0-0-0-0-------------
-
- -----------------------------------------------------------------------------
- -----------------------------------------------------------------------------
- ---------7---7br\------------7---7br\----------5---5---5---------4---4---4---
- -5-5-5-5-x---x-----5-5-5-5-5-x---x-----2-2-2-2-x---x---x-0-0-0-0-x---x---x---
- -3-3-3-3-5---5br\--3-3-3-3-3-5---5br\--0-0-0-0-3---3---3-0-0-0-0-2---2---2---
- ---------------------------------------------------------0-0-0-0-------------


- -----------------------------------------------------------------------------
- -----------------------------------------------------------------------------
- ---------9---9br\------------9---9br\----------9---9br\------------9---9br\--
- -2-2-2/--x---x-----2-2-2-2/--x---x-----2-2-2/--x---x-----2-2-2-2/--x---x-----
- -2-2-2/--7---7br\--2-2-2-2/--7---7br\--2-2-2/--7---7br\--2-2-2-2/--7---7br\--
- -2-2-2/------------2-2-2-2/------------2-2-2/------------2-2-2-2/------------
-
- -----------------------------------------------------------------------------
- -----------------------------------------------------------------------------
- ---------12--12br\-----------12--12br\---------12--12br\-----------12--12br\-
- -2-2-2/--x---x-----2-2-2-2/--x---x-----2-2-2/--x---x-----2-2-2-2/--x---x-----
- -2-2-2/--10--10br\-2-2-2-2/--10--10br\-2-2-2/--10--10br\-2-2-2-2/--10--10br\-
- -2-2-2/------------2-2-2-2/------------2-2-2/------------2-2-2-2/------------


- -----------------------------------------------------------------------------
- -----------------------------------------------------------------8-\7--------
- ---------7---7br\------------7---7br\----------5---5---5---------x--x----x-x-
- -5-5-5-5-x---x-----5-5-5-5-5-x---x-----2-2-2-2-x---x---x-0-0-0-0-5-\4----x-x-
- -3-3-3-3-5---5br\--3-3-3-3-3-5---5br\--0-0-0-0-3---3---3-0-0-0-0---------x-x-
- ---------------------------------------------------------0-0-0-0-------------
-
- -----------------------------------------------------------------------------
- ---------12--12br\-----------12--12br\---------10--10--10--------12\10-------
- ---------x---x---------------x---x-------------x---x---x---------x--x--------
- -5-5-5-5-9---9br-\-5-5-5-5-5-9---9br-\-2-2-2-2-7---7---7-0-0-0-0-9-\7----x-x-
- -3-3-3-3-----------3-3-3-3-3-----------0-0-0-0-----------0-0-0-0---------x-x-
- ---------------------------------------------------------0-0-0-0---------x-x-


[Riff 6a, Guitar 1 & 2] - [02:31] - [02:40]
- ---------------------------------------------------------------------------------
- ---------------------------------------------------------------------------------
- ---------------------------------------------------------------------------------
- -5--5--xx5--5--5---xx5--5--xx5--5--5---xx5--5--xx5--5--5---xx5--5--xx5--5--5-----
- -3--3--xx3--3--3---xx3--3--xx3--3--3---xx3--3--xx3--3--3---xx3--3--xx3--3--3-----
- -5--5--xx5--5--5---xx5--5--xx5--5--5---xx5--5--xx5--5--5---xx5--5--xx5--5--5-----
-
- ---------------------------------------------------------------------------------
- ---------------------------------------------------------------------------------
- -7--7--xx7--7--7---xx7--7--xx7--7--7---xx7--7--xx7--7--7---xx7--7--xx7--7--7-----
- -5--5--xx5--5--5---xx5--5--xx5--5--5---xx5--5--xx5--5--5---xx5--5--xx5--5--5-----
- -3--3--xx3--3--3---xx3--3--xx3--3--3---xx3--3--xx3--3--3---xx3--3--xx3--3--3-----
- ---------------------------------------------------------------------------------


[Riff 6b] - [02:36] - [02:40]
- ---------------------------------------------
- -7--7--xx7--7--7---xx10--10--xx10-/12--12\---
- -x--x--xxx--x--x---xxx---x---xxx---x---x-----
- -4--4--xx4--4--4---xx7---7---xx7--/9---9-\---
- ---------------------------------------------
- ---------------------------------------------


[Riff 7a, Guitar 1 & 2] - [02:40] - [03:02] - [x2]
- -----------------------------------------------------------------
- -----------------------------------------------------------------
- -----------------------------------------------------------------
- -5--5--5-5--5--5---5-5-5-5--5--5-5--5--5-5--5--5---5-5-5-5--5----
- -3--3--3-3--3--3---3-3-3-3--3--3-3--3--3-3--3--3---3-3-3-3--3----
- -5--5--5-5--5--5---5-5-5-5--5--5-5--5--5-5--5--5---5-5-5-5--5--0-
=
- -----------------------------------------------------------------
- -----------------------------------------------------------------
- -7--7--7-7--7--7---7-7-7-7--7--7-7--7--7-7--7--7---7-7-7-7--7----
- -5--5--5-5--5--5---5-5-5-5--5--5-5--5--5-5--5--5---5-5-5-5--5----
- -3--3--3-3--3--3---3-3-3-3--3--3-3--3--3-3--3--3---3-3-3-3--3----
- ---------------------------------------------------------------0-


- ---------------------------------
- ---------------------------------
- ---------------------------------
- -2--2--2-2--2--2-0--0--0-0--0--0-
- -2--2--2-2--2--2-0--0--0-0--0--0-
- -2--2--2-2--2--2-0--0--0-0--0--0-
-
- ---------------------------------
- ---------------------------------
- ---------------------------------
- -2--2--2-2--2--2-0--0--0-0--0--0-
- -2--2--2-2--2--2-0--0--0-0--0--0-
- -2--2--2-2--2--2-0--0--0-0--0--0-


[Riff 7b] - [02:40] - [03:02]
- -----------------------------------------------------------------------------------------
- -----------------------------------------------------------------------------------------
- -12--12--12-12--12--12---12-12-12-12--12--12-11--11--11-11--11--11---11-11-11-11--11--11-
- -x---x---x--x---x---x----x--x--x--x---x---x--x---x---x--x---x---x----x--x--x--x---x---x--
- -10--10--10-10--10--10---10-10-10-10--10--10-9---9---9--9---9---9----9--9--9--9---9---9--
- -----------------------------------------------------------------------------------------

- ---------------------------------------
- ---------------------------------------
- -9--9--9-9--9--9-11--11--11-11--11--11-
- -x--x--x-x--x--x-x---x---x--x---x---x--
- -7--7--7-7--7--7-9---9---9--9---9---9--
- ---------------------------------------

- -----------------------------------------------------------------------------------------
- -12--12--12-12--12--12---12-12-12/15--15--15-10--10--10-10--10--10---10-10-10/15--15--15-
- -x---x---x--x---x---x----x--x--x--x---x---x--x---x---x--x---x---x----x--x--x--x---x---x--
- -9---9---9--9---9---9----9--9--9-/12--12--12-7---7---7--7---7---7----7--7--7-/12--12--12-
- -----------------------------------------------------------------------------------------
- -----------------------------------------------------------------------------------------

- ---------------------------------------------
- -12--12--12-12--12--12-----------------------
- -x---x---x--x---x---x--11--11--11-11--11--11-
- -9---9---9--9---9---9--x---x---x--x---x---x--
- -----------------------9---9---9--9---9---9--
- ---------------------------------------------


[Riff 8a, Guitar 1 & 2] - [03:02] - [03:09]
- -----------------------------------------------------------------
- -----------------------------------------------------------------
- -----------------------------------------------------------------
- -2-------------------------------5-5-5-5-5-5-5-5-5-5-5-5-7-7-----
- -0-------------------------------3-3-3-3-3-3-3-3-3-3-3-3-5-5-----
- -----------------------------------------------------------------
PM                                 ...............
- -----------------------------------------------------------------
- -----------------------------------------------------------------
- -9---------------------------------------------------------------
- -x---------------------------------------------------------------
- -7---------------------------------------------------------------
- -----------------------------------------------------------------


[Riff 8b, Guitar 1 & 2] - [03:02] - [03:09]
- -----------------------------------------------------------------
- ---------------------------------------------------------12\10---
- ---------------------------------------------------------x--x----
- ---------------------------------------------------------9-\7----
- -----------------------------------------------------------------
- -----------------------------------------------------------------
-
- -----------------------------------------------------------------
- ---------------------------------------------------------8-\7----
- ---------------------------------------------------------x--x----
- ---------------------------------------------------------5-\4----
- -----------------------------------------------------------------
- -----------------------------------------------------------------


[Riff 9, Guitar 1 & 2] - [03:09] - [03:37]
- -----------------------------------------------------------------------------
- -----------------------------------------------------------------------------
- ---------9---9br\------------9---9br\----------9---9br\------------9---9br\--
- -2-2-2/--x---x-----2-2-2-2/--x---x-----2-2-2/--x---x-----2-2-2-2/--x---x-----
- -2-2-2/--7---7br\--2-2-2-2/--7---7br\--2-2-2/--7---7br\--2-2-2-2/--7---7br\--
- -2-2-2/------------2-2-2-2/------------2-2-2/------------2-2-2-2/------------
-
- -----------------------------------------------------------------------------
- -----------------------------------------------------------------------------
- ---------9---9br\------------9---9br\----------9---9br\------------9---9br\--
- -2-2-2/--x---x-----2-2-2-2/--x---x-----2-2-2/--x---x-----2-2-2-2/--x---x-----
- -2-2-2/--7---7br\--2-2-2-2/--7---7br\--2-2-2/--7---7br\--2-2-2-2/--7---7br\--
- -2-2-2/------------2-2-2-2/------------2-2-2/------------2-2-2-2/------------


- -----------------------------------------------------------------------------
- -----------------------------------------------------------------------------
- ---------7---7br\------------7---7br\----------5---5---5---------4---4---4---
- -5-5-5-5-x---x-----5-5-5-5-5-x---x-----2-2-2-2-x---x---x-0-0-0-0-x---x---x---
- -3-3-3-3-5---5br\--3-3-3-3-3-5---5br\--0-0-0-0-3---3---3-0-0-0-0-2---2---2---
- ---------------------------------------------------------0-0-0-0-------------
-
- -----------------------------------------------------------------------------
- -----------------------------------------------------------------------------
- ---------7---7br\------------7---7br\----------5---5---5---------4---4---4---
- -5-5-5-5-x---x-----5-5-5-5-5-x---x-----2-2-2-2-x---x---x-0-0-0-0-x---x---x---
- -3-3-3-3-5---5br\--3-3-3-3-3-5---5br\--0-0-0-0-3---3---3-0-0-0-0-2---2---2---
- ---------------------------------------------------------0-0-0-0-------------


- -----------------------------------------------------------------------------
- -----------------------------------------------------------------------------
- ---------9---9br\------------9---9br\----------9---9br\------------9---9br\--
- -2-2-2/--x---x-----2-2-2-2/--x---x-----2-2-2/--x---x-----2-2-2-2/--x---x-----
- -2-2-2/--7---7br\--2-2-2-2/--7---7br\--2-2-2/--7---7br\--2-2-2-2/--7---7br\--
- -2-2-2/------------2-2-2-2/------------2-2-2/------------2-2-2-2/------------
-
- -----------------------------------------------------------------------------
- -----------------------------------------------------------------------------
- ---------12--12br\-----------12--12br\---------12--12br\-----------12--12br\-
- -2-2-2/--x---x-----2-2-2-2/--x---x-----2-2-2/--x---x-----2-2-2-2/--x---x-----
- -2-2-2/--10--10br\-2-2-2-2/--10--10br\-2-2-2/--10--10br\-2-2-2-2/--10--10br\-
- -2-2-2/------------2-2-2-2/------------2-2-2/------------2-2-2-2/------------


- -----------------------------------------------------------------------------
- -----------------------------------------------------------------------------
- ---------7---7br\------------7---7br\----------5---5---5---------------------
- -5-5-5-5-x---x-----5-5-5-5-5-x---x-----2-2-2-2-x---x---x-0-0-0-0-------------
- -3-3-3-3-5---5br\--3-3-3-3-3-5---5br\--0-0-0-0-3---3---3-0-0-0-0-------------
- ---------------------------------------------------------0-0-0-0-------------
-
- -----------------------------------------------------------------------------
- ---------12--12br\-----------12--12br\---------10--10--10--------------------
- ---------x---x---------------x---x-------------x---x---x---------------------
- -5-5-5-5-9---9br-\-5-5-5-5-5-9---9br-\-2-2-2-2-7---7---7-0-0-0-0-------------
- -3-3-3-3-----------3-3-3-3-3-----------0-0-0-0-----------0-0-0-0-------------
- ---------------------------------------------------------0-0-0-0-------------


[Riff 10] - [03:37] - [03:44]
- -----------------------------------------------------------------------------
- -----------------------------------------------------------------------------
- ---------9---9br\------------9---9br\----------9---9---9b--------------------
- -2-2-2/--x---x-----2-2-2-2/--x---x-----2-2-2/--x---x---x---2-2-2-2-----------
- -2-2-2/--7---7br\--2-2-2-2/--7---7br\--2-2-2/--7---7---7b--2-2-2-2-----------
- -2-2-2/------------2-2-2-2/------------2-2-2/--------------2-2-2-2-----------

[Symbols]

PM... Palm Mute notes with (...) under them
AP... Alternate Pick notes with (...) under them
h     Hammer On
p     Pull Off
[ ]   Harmonic
/     Slide Up
\     Slide Down
x     Dead Note
b     Bend
hb    Hold Bend
pb    Pre-Bend
r     Release Bend
(x )  Play Notes x amount of times
~     Let Ring
\\\   Pick Slide Down
///   Pick Slide Up
/ 3 \ Notes are triplets (3 notes in the space of two)
w\    Whammy Bar Down
w/    Whammy Bar Up
wh    Whammy Bar Hold
T     Right Hand Tap
L     Left Hand Tap

:)


            
            
Suggest correction
Creating personal tab
Creating personal tab
You can edit any tab online and save it as your Personal.

You can edit, replace or remove any tab part or add personal notes – all changes will be seen only by you.

Personal tabs can be accessed anytime from any device, even offline.
Learn more »
Give kudos to tab author, rate the tab!
1 2 3 4 5
comments
print report bad tab
guest
You may want to rate the tab now too:
select rating
Wanna post a correction for this tab? Suggest correction