Oops, an error
Loading. Please wait.

My Consolation Bass Tab

183 views 1 this week
1 commentread comment
1 2 3 4 5
2 more votes to show rating
add to favorites
launch autoscroll
font size
0
reset
guitar tuner
Autoscroll
slow
fast
+/-
esc
set tempo
stop
Help us to improve Ultimate-Guitar.com Take our survey!
×
Author
+++++++++++++++++++++++++++++++
| Silverstein- My Consolation |
+++++++++++++++++++++++++++++++

Tuning: EADG

Intro
1.
G|------------------------------------------------------------|
D|-------2~--------------------2~----4~----6~----7~-----------|
A|------------------------------------------------------------|
E|-5~----------0~----5~------------------------------------5~-|

2.
G|------------|
D|------------|
A|-7~---7x----|
E|------------|

Verse
"You left me.."
3.
G|-------------------------------------------------|
D|---------------------------------4444-6----------|
A|-7-77777-77777-77777-77777-77777-----------------|
E|---------------------------------------44--------|

4.
G|-------------------------------------------------|
D|------------4444-6666------------4444-6-66-------|
A|-------------------------------------------------|
E|-5-55555-555----------5-55555-555----------------|

5.
G|-------------------------------------------------|
D|------------4444-6666------------4444-6----------|
A|-7-77777-777----------7-77777-777----------------|
E|----------------------------------------44-------|

6.
G|-------------------------------------------------|
D|------------4444-6666------------4444-6-66-------|
A|-------------------------------------------------|
E|-5-55555-555----------5-55555-555----------------|

7.
G|-------------------------------------------------|
D|------------4444-6666------------4444-6----------|
A|-7-77777-777----------7-77777-777----------------|
E|----------------------------------------44-------|

8.
G|-------------------------------------------------|
D|------------4444-6666------------4444-6-66-------|
A|-------------------------------------------------|
E|-5-55555-555----------5-55555-555----------------|

Pre-Chorus
9.
G|-----------------------------------------|
D|-----------------------------------------|
A|-44444444-22222222-7777777---------------|
E|---------------------------555-444-------|

10.
G|-----------------------------------------|
D|-----------------------------------------|
A|-44444444-22222222-----------------------|
E|-------------------5555-5555-5555-5555---|

Chorus
11.
G|---------------------------------------------------------------|
D|---------------------------------------------------------------|
A|-444-555-------444-555---------------444-555------4444-5555----|
E|---------555x----------555555-555555---------555x-----------5x-|

Verse
12.
G|-------------------------------------------------|
D|---------------------------------4444-6----------|
A|-7-77777-77777-77777-77777-77777-----------------|
E|---------------------------------------44--------|

13.
G|-------------------------------------------------|
D|------------4444-6666------------4444-6-66-------|
A|-------------------------------------------------|
E|-5-55555-555----------5-55555-555----------------|

14.
G|-------------------------------------------------|
D|------------4444-6666------------4444-6----------|
A|-7-77777-777----------7-77777-777----------------|
E|----------------------------------------44-------|

15.
G|-------------------------------------------------|
D|------------4444-6666------------4444-6-66-------|
A|-------------------------------------------------|
E|-5-55555-555----------5-55555-555----------------|

Pre-Chorus
16.
G|-----------------------------------------|
D|-----------------------------------------|
A|-44444444-22222222-7777777---------------|
E|---------------------------555-444-------|

17.
G|-----------------------------------------|
D|-----------------------------------------|
A|-44444444-22222222-----------------------|
E|-------------------5555-5555-5555-5555---|

18.
"I wont forget..."
G|---------------------------------------------------------|
D|---------------------------------------------------------|
A|---------------000000-222222-000000-000000---------------|--x4
E|-444444-444444-----------------------------444444-222222-|

Chorus
19.
G|--------------------------------------------------------------------------|
D|--------------------------------------------------------------------------|
A|-444-555-------444-555---------------444-555------4444-5555---------------|
E|---------555x----------555555-555555---------555x-----------555555-555555-|

20.
G|-------4~----2~----1~----|
D|-------------------------|
A|-0~----------------------|
E|-------------------------|

Lyrics

You left me, now you come back to me saying it's changed 
and we're not the same people we once were. 
And you beg to be back with me, 
I can't see anything but you.
Every night, I see you there. 
Everyday, I hate you and everything we once were. 
You keep saying it's changed and we're not the same. 
And you beg to be back with me, now I can't see anything. 
I won't forget everything that you put us through. 
Every night, I see you there. 
Everyday, I hate you. 
Crying can't carry you back to me

+++++++++++++++++++++++++++++++++
| RaiLeff                       |
| Underground__Dora@Hotmail.Com |
+++++++++++++++++++++++++++++++++
Suggest correction
Give kudos to tab author, rate the tab!
1 2 3 4 5
comments
print report bad tab
1 comment total.
0 reply
carrotcake 1,997 May 27, 2007 03:57 PM

thanks for putting the part after 16 & 17, it's now a 5* tab

guest
You may want to rate the tab now too:
select rating
Wanna post a correction for this tab? Suggest correction