Oops, an error
Loading. Please wait.

My Consolation Tab

1,224 views 3 this week
1 commentread comment
1 2 3 4 5
excellent!
x 6
add to favorites
launch autoscroll
font size
0
reset
how to read this tab
guitar tuner
Tab Pro tools
  • play this tab
  • loop segment
  • change instrument
  • show fretboard
  • metronome
Autoscroll
slow
fast
+/-
esc
set tempo
stop
-------------------------------------------------------------------------------
                             My consolation - Silverstein
-------------------------------------------------------------------------------
Tabbed by: Omar MC
Email: omarkhoppus182@hotmail.com

Tuning: normal

 Hola VIRI 
any questiones, comments, messages, suggestion or corrections:  email me

INTRO (clean) 

guitar 1 (00:07) 

e---------------------------------------| |---(repeat 12x)---| 
B----------0---------------0------------| |--------0---------| 
G--2p1---1---1-----2p1---1--------------| |--------1---------| 
D------2---------------2----------------| |--------2---------| 
A---------------------------------------| |------------------| 
E---------------------------------------| |--End with this---| 


guitar 2 (00:17) 

e-(12)--14-12-11-12p11-------------12--(12)-14-12-11-12-11-----| |---12---| 
B-(12)------------------12--9---12-----(12)----------------12--| |----9---| 
G--------------------------------------------------------------| |--------| 
D--------------------------------------------------------------|(repeat 2x) 
A--------------------------------------------------------------| |--End---| 
E--------------------------------------------------------------| |--with--| 
                                                                    this 

PRE-VERSE guitar 1 (00:39) 

e--------------------------------------------------| 
B--------------------------------------------------| 
G--------------------------------------------------| 
D--7p6-6---7p6-6---7p6-6---7p6-6-------9p6--9p6----| (repeat 4x) 
A--------------------------------------------------| 
E--------------------------------------------------| 

guitar 2 (00:43) 

e--------------------------------------------------| 
B--------------------------------------------------| 
G--9~~--------------------------9------------------| 
D--9~~--------------------------9------------------| 
A--7~~--------------------------7------------------| 
E--------------------------------------------------| 


VERSE & CHORUS 

guitar 1 (00:48) You left me 

e------------------------------------------------------------------| 
B------------------------------------------------------------------| 
G------------------------------------------------------------------| 
D--6-6-6-6-6-6-6-6-6-6-6-6-6-6-6-6-6-6-6-6-6-6-6-6-6-6-6-6-6-6-6-6-| cont. 
A--6-6-6-6-6-6-6-6-6-6-6-6-6-6-6-6-6-6-6-6-6-6-6-6-6-6-6-6-6-6-6-6-| 
E--4-4-4-4-4-4-4-4-4-4-4-4-4-4-4-4-4-4-4-4-4-4-4-4-4-4-4-4-4-4-4-4-| 
(repeat 4x) 
e------------------------------------------------------------------| 
B------------------------------------------------------------------| 
G------------------------------------------------------------------| 
D--7-7-7-7-7-7-7-7-7-7-7-7-7-7-7-7-7-7-7-7-7-7-7-7-7-7-7-7-7-7-7-7-| 
A--7-7-7-7-7-7-7-7-7-7-7-7-7-7-7-7-7-7-7-7-7-7-7-7-7-7-7-7-7-7-7-7-| 
E--5-5-5-5-5-5-5-5-5-5-5-5-5-5-5-5-5-5-5-5-5-5-5-5-5-5-5-5-5-5-5-5-| 


(01:30) 

e-------------------------------------------------------------| 
B-------------------------------------------------------------| 
G-------------------------------------------------------------| 
D--6-6-6-6-6-6---7-7-7-7-7-7---6-6-6-6-6-6---9-9-9-9-9-9-9-9--| cont 
A--6-6-6-6-6-6---7-7-7-7-7-7---6-6-6-6-6-6---9-9-9-9-9-9-9-9--| 
E--4-4-4-4-4-4---5-5-5-5-5-5---4-4-4-4-4-4---7-7-7-7-7-7-7-7--| 


e------------------------------------------------------------| 
B------------------------------------------------------------| 
G------------------------------------------------------------| 
D--666666---777777777---7777----7-7-7-7---7-7-7-7---7-7-7-7--| 
A--666666---777777777---7777----7-7-7-7---7-7-7-7---7-7-7-7--| 
E--444444---555555555---5555----5-5-5-5---5-5-5-5---5-5-5-5--| 



guitar 2 (00:48) You left me 

e-------------------------------------------------------------| 
B-------------------------------------------------------------| 
G-1313131313131313131313131313-/-141414141414-/-161616161616--| 
D--*-*-*-*-*-*-*-*-*-*-*-*-*-*---*-*-*-*-*-*----*-*-*-*-*-*---| cont. 
A-1111111111111111111111111111-/-121212121212-/-141414141414--| 
E-------------------------------------------------------------| 
(repeat 4x) 
e----------------------------------------------------------------| 
B----------------------------------------------------------------| 
G-1414141414141414141414141414/-131313131313-/-11-11-11-11-11-11-| 
D--*-*-*-*-*-*-*-*-*-*-*-*-*-*---*-*-*-*-*--*---*--*--*--*--*--*-| 
A-1212121212121212121212121212/-111111111111-/-9--9--9--9--9--9--| 
E----------------------------------------------------------------| 

(01:30) 

e--------------------------------------------------------------| 
B--------------------------------------------------------------| 
G-131313131313-/-141414141414-/-131313131313-16161616-14141414-| 
D--*-*-*-*-*-*----*-*-*-*-*-*----*-*-*-*-*-*--*-*-*-*--*-*-*-*-| cont. 
A-111111111111-/-121212121212-/-111111111111-14141414-12121212-| 
E--------------------------------------------------------------| 

e--------------------------------------------------------------------| 
B--------------------------------------------------------------------| 
G-13-13-13-13-/-14-14-14-14-/-13--9-9-9-9--9-9-9-9--9-9-9-9--9-9-9-9-| 
D--*--*--*--*----*--*--*--*----*--*-*-*-*--*-*-*-*--*-*-*-*--*-*-*-*-| 
A-11-11-11-11-/-12-12-12-12-/-11--7-7-7-7--7-7-7-7--7-7-7-7--7-7-7-7-| 
E--------------------------------------------------------------------| 

BRIDGE 

guitar 1 (01:44) 

e---------------------------------------------------------------| 
B---------------------------------------------------------------| 
G---------------------------------------------------------------| 
D--111111--121212---777-----------------111111--121212--777777--|
A--111111--121212---777-----------------111111--121212--777777--| 
E--9-9-9---101010---555-----------------9-9-9---101010--555555--| 
                                                          (repeat 2x)            
  
guitar 2 (01:44) 

e-----------------------------------------------------------------| 
B-----------------------------------------------------------------| 
G-------------------------7-6-7---9-7-6-------------------999999--| 
D--111111---121212---777------------------111111-121212---******--|
A--111111---121212---777------------------111111-121212---777777--| 
E--9-9-9----101010---555------------------9-9-9--101010-----------| 
 (repeat 2x) 

VERSE (only repeat 2x) (01:58) I hate you 

CHORUS (02:26) 


INTERLUDE (02:40) 

guitar 1 

e----------------------------------------------------------| 
B----------------------------------------------------------| 
G----------------------------------------------------------| 
D--------------7-7-7-7-----------------7-7-7-7-------------| 
A--------------7-7-7-7-----------------7-7-7-7-------------| 
E--------------5-5-5-5-----------------5-5-5-5-------------| 



guitar 2 
e----------------------------------------------------------| 
B----------------------------------------------------------| 
G--9-*-*-9-*-*-9-*-*-9-*-*-9-*-*-9-*-*-9-*-*-9-*-*-9-------| 
D--*-*-*-*-*-*-*-*-*-*-*-*-*-*-*-*-*-*-*-*-*-7-*-*-*-------| 
A--7-*-*-7-*-*-7-*-*-7-*-*-7-*-*-7-*-*-7-*-*-7-*-*-7-------| 
E----------------------------------------------------------| 


sorry, I can't figure out this part but is something like this 
e----------------------------------------------------------| 
B----------------------------------------------------------| 
G--9-9-9-/-8------------------------------------18-19------| 
D--*-*-*-----------------------------------------*--*------| 
A--7-7-7-/-6------------------------------------16-17------| 
E----------------------------------------------------------| 



BRIDGE (03:14) 



OUTRO 
guitar 1 (03:29) 
e-----------------------------------------------------------| 
B-----------------------------------------------------------| 
G-----------------------------------------------------------| 
D------------------------------------------------------9----| 
A--/14--14-14---12--12-12---11--11-11---12-11----------7----| 
E---------------------------------------------13------End---| 


guitar 2 (03:43) 
e------------------------------------------------------------| 
B------------------------------------------------------------| 
G------16----14-----13--14---13------------------------16----| 
D---14----14----14--------------14----repeat--4x-------14----| 
A------------------------------------------------------------| 
E-----------------------------------------------------End----| 
 !Hola VIRI! 

That´s all folks, enjoy it and have fun with your cock out.
comments
print report bad tab
1 comment total.
0 reply
NirvanaFan101 wrote on August 5 2006, 11:32 am

Pretty good tab... I'll give you 4 stars.

I want to post or [tab]
guest
You may want to rate the tab now too:
select rating
Please do not post tabs as comments. Select "correction" instead!