Oops, an error
Loading. Please wait.

My Disaster Tab

version 1
version 1

Intro

Whole song

Interactive

2,401 views 1 this week
1 commentread comment
1 2 3 4 5
1 last vote to show rating
add to favorites
launch autoscroll
font size
0
reset
how to read this tab
guitar tuner
Autoscroll
slow
fast
+/-
esc
set tempo
stop
Help us to improve Ultimate-Guitar.com Take our survey!
×
Author
Difficulty
novice
-----------------------------------------------------------------
MY DISASTER - Silverstein
-----------------------------------------------------------------
Email: enjoi_globe_sk8er_guy@yahoo.com
Tuning: DADGBe

i know i only have the intro but im working on the whole song.


Intro: Guitar 1 & 2 
e|--------------------|
B|--------------------|
G|-4444--33--------66-|
D|-xxxx--xx--1111--xx-|
A|-2222--11--1111--44-|
D|-----------1111-----|

e|---------------------|
B|---------------------|
G|-4444--33--------666-|
D|-xxxx--xx--1111--666-|
A|-2222--11--1111--444-|
D|-----------1111------|
PM                 ...

e|--------------------|
B|--------------------|
G|-4444--33--------66-|
D|-xxxx--xx--1111--xx-|
A|-2222--11--1111--44-|
D|-----------1111-----|

e|---------------------|
B|---------------------|
G|-4444--33--------666-|
D|-xxxx--xx--1111--666-|
A|-2222--11--1111--444-|
D|-----------1111------|
PM                 ...

e|--------------------|
B|--------------------|
G|-4444--33--------66-|
D|-xxxx--xx--1111--xx-|
A|-2222--11--1111--44-|
D|-----------1111-----|

e|-------------------------|
B|-------------------------|
G|-4444--33--------6666666-|
D|-xxxx--xx--1111--6666666-|
A|-2222--11--1111--4444444-|
D|-----------1111----------|
PM                 .......


| /  slide up
| \  slide down
| h  hammer-on
| p  pull-off
| ~  vibrato
| +  harmonic
| x  Mute note

Suggest correction
Give kudos to tab author, rate the tab!
1 2 3 4 5
comments
print report bad tab
1 comment total.
0 reply
RaiLeff 12,922 Jul 08, 2007 04:23 PM

Yea its perfect
I hope you can get the whole album on guitar soon
Cya!

guest
You may want to rate the tab now too:
select rating
Wanna post a correction for this tab? Suggest correction