Oops, an error
Loading. Please wait.

My Disaster Tab

version 1
version 1

Whole song

Interactive

12,227 views 9 this week
3 commentsread comments
1 2 3 4 5
accurate
x 13
add to favorites
launch autoscroll
font size
0
reset
how to read this tab
guitar tuner
Tab Pro tools
  • play this tab
  • loop segment
  • change instrument
  • show fretboard
  • metronome
×
Best way to learn
"My Disaster"
Autoscroll
slow
fast
+/-
esc
set tempo
stop
Contributor
Difficulty
Tuning
novice
D A D G B E
-------------------------------------------------------------------------------
                             My Disaster - Silverstein
-------------------------------------------------------------------------------
Tabbed by:Chris
Email:christopha37@yahoo.com

Tuning:Drop D

Intro:  Both Guitars

e|--------------------------------------------------------------------------|
B|--------------------------------------------------------------------------|
G|--4444---33----------66---(x3)-----4444---33------------------------------|
D|--4444---33---1111---44------------4444---33---11111111-------------------|
A|--2222---11---1111---44------------2222---11---11111111-------------------|
E|--------------1111-----------------------------11111111-------------------|            
                                    ........

Verse:  Both Guitars


e|--------------------------------------------------------------------------|
B|---------------------------------------------------------------------(x2)-|
G|-----00000000000------00000000000------00000000000------00000000000-------|
D|--11144433334444---11144433334444---44444433334444---44444433334444-------|
A|--111--------------111--------------222--------------222------------------|
E|--111--------------111----------------------------------------------------|
    ...              ...              ...              ...


Chorus: Both Guitars


e|--------------------------------------------------------------------------|
B|--------------------------------------------------------------------------|
G|--4------3----------4------3----------6---4---3----------6---4---3--------|
D|--4------3---1------4------3---1------6---4---3---1------6---4---3---1----|
A|--2------1---1------2------1---1------4---2---1---1------4---2---1---1----|
E|-------------1-----------------1------------------1------------------1----|


(Verse)


(Chorus)


(Back to intro)
"listen for the palm muted fill on the first fret after the intro riff"


Solo:  (Guitar 1) up and down fast picking


e|--------------------------------------------------------------------------|
B|------14---11---9--7-------14---11---9^9--7--------14---11---9--7--9^-----|
G|--8--------------------8-------------------8---8--------------------------|
D|--------------------------------------------------------------------------|
A|--------------------------------------------------------------------------|
E|--------------------------------------------------------------------------|

e|--14---13---11---9----14---13---16---13----14---13---11-------------------|
B|--------------------------------------------------------------------------|
G|--------------------------------------------------------------------------|
D|--------------------------------------------------------------------------|
A|--------------------------------------------------------------------------|
E|--------------------------------------------------------------------------|


Solo (Guitar 2)

e|--------------------------------------------------------------------------|
B|--------------------------------------------------------------(x2)--------|
G|--4---------6---8---------6---4---------3---------------------------------|
D|--4---------6---8---------6---4---------3---1-----------------------------|
A|--2---------4---6---------4---2---------1---1-----------------------------|
E|--------------------------------------------1-----------------------------|

After Solo


e|--------------------------------------------------------------------------|
B|--------------------------------------------------------------------------|
G|--4444---33----------66-----(x2)------------------------------------------|
D|--4444---33---1111---66---------------------------------------------------|
A|--2222---11---1111---44---------------------------------------------------|
E|--------------1111--------------------------------------------------------|


(Chorus)


Outro: (Guitar 1)


e|--------------------------------15-------------------------------15-------|
B|-----------------------------------767676767676767676767676767676---------|
G|--43434343434343434343434343434-------------------------------------------|
D|--------------------------------------------------------------------------|
A|--------------------------------------------------------------------------|
E|--------------------------------------------------------------------------|


Outro: (Guitar 2)


e|--------------------------------------------------------------------------|
B|--------------------------------------------------------------------------|
G|--------------------------------------------------------------------------|
D|--111--111-(x2)---444--444---333--444---111--111--------------------------|
A|--111--111--------222--222---111--444---111--111--------------------------|
E|--111--111------------------------444---111--111--------------------------|
    ...  ...        ...  ...   ...  ...   ...  ...

| ^  bend up
| \  slide down
| h  hammer-on
| p  pull-off
| ~  vibrato
| +  harmonic
| .  Mute note
===============================================================================
comments
print report bad tab
3 comments total.
0 reply
die_romantic2 wrote on August 1 2007, 06:07 am

its drop Db... so this tab's gotta have a lot wrong with it tbh, i've worked out how to play it and you need it drop Db.

0 reply
HH_Emo_666 wrote on August 16 2007, 01:09 pm

im pretty sure this is in drop d .. 5 stars .. great tab with solo

0 reply
brandon13_69 wrote on November 25 2007, 01:24 am

well done. it's in drop d.

I want to post or [tab]
guest
You may want to rate the tab now too:
select rating
Please do not post tabs as comments. Select "correction" instead!