Oops, an error
Loading. Please wait.

My Heroine Acoustic chords

version 3
version 3
42,361 views 6 this week
2 commentsread comments
1 2 3 4 5
x 6
add to favorites
×
Save as Personal and add changes to this tab that will be seen only by you. Learn more ›
×
You can save this tab as Personal to edit and correct it or add notes. All changes will be seen only by you. Learn more »
launch autoscroll
font size
0
reset
transpose
0
reset
simplify chords
display chords
guitar tuner
edit
Autoscroll
slow
fast
+/-
esc
set tempo
stop
Author
Strumming
There is no strumming pattern for this song yet. and get +5 IQ
Tab by - killergagnon
Song by - Silverstein - My Heroine
Standard tuning (EADGBe)


|--------------------------------------------------------|
|--------------------------------------------------------|
|--------0-------------0-------------0-----0----0--------|
|---9---------0---0---------0----0-------0----0-----0----|
|-----10---10-------10---10--------9---9----9-----9------|
|-0-------------8-------------10-------------------------|

|----------------------------------------------------|
|----------------------------------------------------|
|--------0-------------0-------------0-----0----0----|
|---9---------0---0---------0----0-------0----0-----0|
|-----10---10-------10---10--------9---9----9-----9--|
|-0-------------8-------------10---------------------|

|----------------------------------------------------|
|----------------------------------------------------|
|--------0-------------0-------------0-----0----0----|
|---9---------0---0---------0----0-------0----0-----0|
|-----10---10-------10---10--------9---9----9-----9--|
|-0-------------8-------------10---------------------|

The drugs begin to peak

|----------------------------------------------------|
|----------------------------------------------------|
|--------0-------------0-------------0-----0----0----|
|---9---------0---0---------0----0-------0----0-----0|
|-----10---10-------10---10--------9---9----9-----9--|
|-0-------------8-------------10---------------------|

A smile of joy arrives in me

|----------------------------------------|
|----------------------------------------|
|----------------------------------------|
|--------0------0-------------0------0---|
|---10-----10-----10-----9------9------9-|
|-8----8------8-------10---10-----10-----|
                                                    
|-----------------------------------------------|
|-----------------------------------------------|
|---------------------------------12------12----|
|----------0-------12----------------0-------0--|
|----10------10-------10----10---------10-------|
|-12----12------12-------12----12---------------|

But sedation changes to panic and nausea

|----------------------------------------|
|----------------------------------------|
|----------------------------------------|
|--------0------0-------------0------0---|
|---10-----10-----10-----9------9------9-|
|-8----8------8-------10---10-----10-----|
                                                    
|-----------------------------------------------|
|-----------------------------------------------|
|---------------------------------12------12----|
|----------0-------12----------------0-------0--|
|----10------10-------10----10---------10-------|
|-12----12------12-------12----12---------------|


And breath starts to shorten
    C                D
And heartbeats pound softer
Em        C            D
You won't try to save me!
Em         C          D                            C
You just want to hurt me and leave me desperate!


      D        Em        Em7                         C     
You taught my heart, a sense I never knew I had.
   D     Em         G            
I can't forget, the times that I was 
C           D                Em
Lost and depressed from the awful truth
    Em7            C
How do you do it?
               D
You're my heroine!

Em          C        D
You won't leave me alone!

Em         C            D                       C
Chisel my heart out of stone, I give in everytime.



      D        Em       Em7                         C     
You taught my heart, a sense I never knew I had.
   D     Em         G            
I can't forget, the times that I was 
C           D                Em
Lost and depressed from the awful truth
    Em7             C
How do you do it?
               D             G
You're my heroine!


           B              Em           D              C          D    G
I bet you laugh, at the thought of me thinking for myself. (myself)
           B                Em               D                C
I bet you believe, that I'm better off with you than someone else.

|----------------------------------------------------|
|----------------------------------------------------|
|--------0-------------0-------------0-----0----0----|
|---9---------0---0---------0----0-------0----0-----0|
|-----10---10-------10---10--------9---9----9-----9--|
|-0-------------8-------------10---------------------|

Your face arrives Again

|----------------------------------------------------|
|----------------------------------------------------|
|--------0-------------0-------------0-----0----0----|
|---9---------0---0---------0----0-------0----0-----0|
|-----10---10-------10---10--------9---9----9-----9--|
|-0-------------8-------------10---------------------|

All hope I had become surreal

|----------------------------------------|
|----------------------------------------|
|----------------------------------------|
|--------0------0-------------0------0---|
|---10-----10-----10-----9------9------9-|
|-8----8------8-------10---10-----10-----|
                                                     
|-----------------------------------------------|
|-----------------------------------------------|
|---------------------------------12------12----|
|----------0-------12----------------0-------0--|
|----10------10-------10----10---------10-------|
|-12----12------12-------12----12---------------|

But under your covers more torture than pleasure

|----------------------------------------|
|----------------------------------------|
|----------------------------------------|
|--------0------0-------------0------0---|
|---10-----10-----10-----9------9------9-|
|-8----8------8-------10---10-----10-----|
                                                     
|-----------------------------------------------|
|-----------------------------------------------|
|---------------------------------12------12----|
|----------0-------12----------------0-------0--|
|----10------10-------10----10---------10-------|
|-12----12------12-------12----12---------------|

And just past your lips there's more anger than laughter

|----------------------------------------|
|----------------------------------------|
|----------------------------------------|
|--------0------0-------------0------0---|
|---10-----10-----10-----9------9------9-|
|-8----8------8-------10---10-----10-----|
                                                     
|-----------------------------------------------|
|-----------------------------------------------|
|---------------------------------12------12----|
|----------0-------12----------------0-------0--|
|----10------10-------10----10---------10-------|
|-12----12------12-------12----12---------------|

Not now or forever will I ever change you


|----------------------------------------|
|----------------------------------------|
|----------------------------------------|
|--------0------0-------------0------0---|
|---10-----10-----10-----9------9------9-|
|-8----8------8-------10---10-----10-----|
                                                     
|-----------------------------------------------|
|-----------------------------------------------|
|---------------------------------12------12----|
|----------0-------12----------------0-------0--|
|----10------10-------10----10---------10-------|
|-12----12------12-------12----12---------------|

I know that to go on

        Em          D          C
I'll break you, my habit!

      D        Em       E7                        C     
You taught my heart, a sense I never knew I had.
   D     Em         G            
I can't forget, the times that I was 
C           D                Em
Lost and depressed from the awful truth
     Em7               C
How do you do it?
               D 
You're my heroine!

Em       C     D         Em (mute)
I will save myself!
Suggest correction
Creating personal tab
Creating personal tab
You can edit any tab online and save it as your Personal.

You can edit, replace or remove any tab part or add personal notes – all changes will be seen only by you.

Personal tabs can be accessed anytime from any device, even offline.
Learn more »
comments
print report bad tab
2 comments total.
0 reply
Sowhenstommarow 10 Jan 26, 2010 05:45 PM

this tab is spot on i think thanks its great do you have others for silverstein

0 reply
Sreppling 10 Jun 13, 2011 02:46 AM

Great tab, but think that you play this instead

|----------------------------------------|
|----------------------------------------|
|----------------------------------------|
|--------0------0-------------0------0---|
|---10-----10-----10-----9------9------9-|
|-8----8------8-------10---10-----10-----|
x1
|-----------------------------------------------|
|-----------------------------------------------|
|---------------------------------12------12----|
|----------0-------12----------------0-------0--|
|----10------10-------10----10---------10-------|
|-12----12------12-------12----12---------------| x2
and not both lines twice :)

guest
You may want to rate the tab now too:
select rating
Wanna post a correction for this tab? Suggest correction