Oops, an error
Loading. Please wait.

My Heroine Tab

version 3
version 3

Whole song

362,963 views 240 this week
69 commentsread comments
1 2 3 4 5
excellent!
x 195
add to favorites
launch autoscroll
font size
0
reset
how to read this tab
guitar tuner
Autoscroll
slow
fast
+/-
esc
set tempo
stop
Help us to improve Ultimate-Guitar.com Take our survey!
×
Author
fret13 2,029
Artist: Silverstein
Song: My Heroine
Cd: Discovering the Waterfront
Tuning: Standard
Low to High
(EADGBe)
=========================================================================
Alright I have officailly updated this so it is 100%
everything sounds just like the song I'm positive
I'm sorry it took so long but thanks.
=========================================================================
some people have been rating this 1* so i
only got to say please, please be fair
=========================================================================
I would like to thank Daniel Stapp(ver 2)
and HopeUnknownMB (ver1)
=========================================================================
Ive updated the intro bridge and pre-chorus
=========================================================================

GUITAR 1

e|----------------------------------------------------|x4
B|----------------------------------------------------|
G|--------0-------------0-------------0-----0----0----|
D|---9---------0---0---------0----0-------0----0-----0|
A|-----10---10-------10---10--------9---9----9-----9--|
E|-0-------------8-------------10---------------------|

e|-------------------------------------------------------------------------|
B|-------------------------------------------------------------------------|
G|---0-------0--------0---------0-------------0--------0--------0--------0-|
D|-------0-------0-----------------------9--------9--------12-------12-----|
A|-------------------------9---------9-----10-------10---9----9---9----9---|
E|-8---8---8---8---10---10---10---10---0--------0--------------------------|

e|-------------------------------------------------------------------------|
B|-------------------------------------------------------------------------|
G|---0-------0--------0---------0-----------------------7-7-7-7-7-7-7-7----|
D|-------0-------0----------------------2-2-2-2-2-2-2-2-7-7-7-7-7-7-7-7----|
A|-------------------------9---------9--2-2-2-2-2-2-2-2-5-5-5-5-5-5-5-5----|
E|-8---8---8---8---10---10---10---10----0-0-0-0-0-0-0-0--------------------|
                                       . . . . . . . . . . . .


 [pre-chorus] distorted
e|-----------------------------------------------------|
B|-----------------------------------------------------|
G|---------------5--5-5--5-5-5-------------------------|
D|-2--2-2--2-2-2-5--5-5--5-5-5-4--4-4--4-4-4-5-4-7-4-5-|
A|-2--2-2--2-2-2-3--3-3--3-3-3-5--5-5--5-5-5-5-5-5-5-5-|
E|-0--0-0--0-0-0---------------------------------------|

e|-------------------------------------------------------|
B|-------------------------------------------------------|
G|---------------5--5-5--5-5-5---------------------------|
D|-2--2-2--2-2-2-5--5-5--5-5-5-4--4-4--4-4-4-5-4-5-5-4---|
A|-2--2-2--2-2-2-3--3-3--3-3-3-5--5-5--5-5-5-5-5-5-5-5---|
E|-0--0-0--0-0-0---------------------------------------0-|


 [chorus]
e|-----------------------------------------------------------------|
B|-----------------------------------------------------------------|
G|-9-9-9-9-9-9-9-9-11-11-11-11-11-11-11-11-12-12-12-12-12-12-12-12-|
D|-x-x-x-x-x-x-x-x--x--x--x--x--x--x--x--x--x--x--x--x--x--x--x--x-|
A|-7-7-7-7-7-7-7-7--9--9--9--9--9--9--9--9-10-10-10-10-10-10-10-10-|
E|-----------------------------------------------------------------|

e|-------------------------|
B|-------------------------|
G|-------------------------|
D|-12--12-10-10-9-9-7------|
A|-------------------------|
E|-------------------------|

e|-----------------------------------------------------------------|
B|-----------------------------------------------------------------|
G|-9-9-9-9-9-9-9-9-11-11-11-11-11-11-11-11-12-12-12-12-12-12-12-12-|
D|-x-x-x-x-x-x-x-x--x--x--x--x--x--x--x--x--x--x--x--x--x--x--x--x-|
A|-7-7-7-7-7-7-7-7--9--9--9--9--9--9--9--9-10-10-10-10-10-10-10-10-|
E|-----------------------------------------------------------------|

e|-------------------------|
B|-------------------------|
G|-12-12-12-12-12-12-12-12-|
D|--x--x--x--x--x--x--x--x-|
A|-10-10-10-10-10-10-10-10-|
E|-------------------------|

e|-----------------------------------------------------------------|
B|-----------------------------------------------------------------|
G|-9-9-9-9-9-9-9-9-11-11-11-11-11-11-11-11-12-12-12-12-12-12-12-12-|
D|-x-x-x-x-x-x-x-x--x--x--x--x--x--x--x--x--x--x--x--x--x--x--x--x-|
A|-7-7-7-7-7-7-7-7--9--9--9--9--9--9--9--9-10-10-10-10-10-10-10-10-|
E|-----------------------------------------------------------------|

e|-------------------------|
B|-------------------------|
G|-12-12-12-12-12-12-12-12-|
D|--x--x--x--x--x--x--x--x-|
A|-10-10-10-10-10-10-10-10-|
E|-------------------------|

e|----------------------------------------------------------------------|
B|----------------------------------------------------------------------|
G|-9-9-9-9-9-9-9-9-9-9-9-9-9-9-9-9-11-7-7-7-7-7-7-7-7-7-7-7-7-7-7-7-7-7-|
D|-x-x-x-x-x-x-x-x-x-x-x-x-x-x-x-x--x-7-7-7-7-7-7-7-7-7-7-7-7-7-7-7-7-7-|
A|-7-7-7-7-7-7-7-7-7-7-7-7-7-7-7-7--9-5-5-5-5-5-5-5-5-5-5-5-5-5-5-5-5-5-|
E|------------------------------------.-.-.-.-.-.-.-.-------------------|


 [pre-chorus] distorted
e|----------------------------------------------------|
B|----------------------------------------------------|
G|---------------5--5-5--5-5-5-7--7-7--7-7-7----------|
D|-2--2-2--2-2-2-5--5-5--5-5-5-7--7-7--7-7-7-5-4-7-4-5|
A|-2--2-2--2-2-2-3--3-3--3-3-3-5--5-5--5-5-5-5-4-7-4-5|
E|-0--0-0--0-0-0-----------------------------3-2-5-2-3|

e|-------------------------------------------------------|
B|-------------------------------------------------------|
G|---------------5--5-5--5-5-5-7--7-7--7-7-7-------------|
D|-2--2-2--2-2-2-5--5-5--5-5-5-7--7-7--7-7-7-5-5-4-5-4---|
A|-2--2-2--2-2-2-3--3-3--3-3-3-5--5-5--5-5-5-5-5-4-5-4---|
E|-0--0-0--0-0-0-----------------------------3-3-2-3-2p0-|


 [chorus]
e|-----------------------------------------------------------------|
B|-----------------------------------------------------------------|
G|-9-9-9-9-9-9-9-9-11-11-11-11-11-11-11-11-12-12-12-12-12-12-12-12-|
D|-x-x-x-x-x-x-x-x--x--x--x--x--x--x--x--x--x--x--x--x--x--x--x--x-|
A|-7-7-7-7-7-7-7-7--9--9--9--9--9--9--9--9-10-10-10-10-10-10-10-10-|
E|-----------------------------------------------------------------|

e|-------------------------|
B|-------------------------|
G|-------------------------|
D|-12--12-10-10-9-9-7------|
A|-------------------------|
E|-------------------------|

e|-----------------------------------------------------------------|
B|-----------------------------------------------------------------|
G|-9-9-9-9-9-9-9-9-11-11-11-11-11-11-11-11-12-12-12-12-12-12-12-12-|
D|-x-x-x-x-x-x-x-x--x--x--x--x--x--x--x--x--x--x--x--x--x--x--x--x-|
A|-7-7-7-7-7-7-7-7--9--9--9--9--9--9--9--9-10-10-10-10-10-10-10-10-|
E|-----------------------------------------------------------------|

e|-------------------------|
B|-------------------------|
G|-12-12-12-12-12-12-12-12-|
D|--x--x--x--x--x--x--x--x-|
A|-10-10-10-10-10-10-10-10-|
E|-------------------------|

e|-----------------------------------------------------------------|
B|-----------------------------------------------------------------|
G|-9-9-9-9-9-9-9-9-11-11-11-11-11-11-11-11-12-12-12-12-12-12-12-12-|
D|-x-x-x-x-x-x-x-x--x--x--x--x--x--x--x--x--x--x--x--x--x--x--x--x-|
A|-7-7-7-7-7-7-7-7--9--9--9--9--9--9--9--9-10-10-10-10-10-10-10-10-|
E|-----------------------------------------------------------------|

e|-------------------------|
B|-------------------------|
G|-12-12-12-12-12-12-12-12-|
D|--x--x--x--x--x--x--x--x-|
A|-10-10-10-10-10-10-10-10-|
E|-------------------------|

e|----------------------------------------------------------------------|
B|----------------------------------------------------------------------|
G|-9-9-9-9-9-9-9-9-9-9-9-9-9-9-9-9-11-7-7-7-7-7-7-7-7-7-7-7-7-7-7-7-7-7-|
D|-x-x-x-x-x-x-x-x-x-x-x-x-x-x-x-x--x-7-7-7-7-7-7-7-7-7-7-7-7-7-7-7-7-7-|
A|-7-7-7-7-7-7-7-7-7-7-7-7-7-7-7-7--9-5-5-5-5-5-5-5-5-5-5-5-5-5-5-5-5-5-|
E|------------------------------------.-.-.-.-.-.-.-.-------------------|


 [bridge]
e|-------------------------------------------------|
B|-------------------------------------------------|
G|-12-12-12-12-12-12-12-12-11-11-11-11-11-11-11-11-|
D|--x--x--x--x--x--x--x--x--x--x--x--x--x--x--x--x-|
A|-10-10-10-10-10-10-10-10--9--9--9--9--9--9--9--9-|
E|-------------------------------------------------|

e|-------------------------------------------------|
B|-------------------------------------------------|
G|-16-16-16-17-14-14-14-16-12-12-12-12-12-12-12-14-|
D|--x--x--x--x--x--x--x--x--x--x--x--x--x--x--x--x-|
A|-14-14-14-15-12-12-12-14-10-10-10-10-10-10-10-12-|
E|-------------------------------------------------|

e|-------------------------------------------------|
B|-------------------------------------------------|
G|-12-12-12-12-12-12-12-12-11-11-11-11-11-11-11-11-|
D|--x--x--x--x--x--x--x--x--x--x--x--x--x--x--x--x-|
A|-10-10-10-10-10-10-10-10--9--9--9--9--9--9--9--9-|
E|-------------------------------------------------|

e|-------------|
B|-------------|
G|-9----7----5-|
D|-9----7----5-|
A|-7----5----3-|
E|-------------|


 [breakdown] clean
e|----------------------------------------------------|x4
B|----------------------------------------------------|
G|--------0-------------0-------------0-----0----0----|
D|---9---------0---0---------0----0-------0----0-----0|
A|-----10---10-------10---10--------9---9----9-----9--|
E|-0-------------8-------------10---------------------|

e|----------------------------------------|
B|----------------------------------------|
G|----------------------------------------|
D|--------0------0-------------0------0---|
A|---10-----10-----10-----9------9------9-|
E|-8----8------8-------10---10-----10-----|
                                                     x2
-----------------------------------------------|
-----------------------------------------------|
---------------------------------12------12----|
----------0-------12----------------0-------0--|
----10------10-------10----10---------10-------|
-12----12------12-------12----12---------------|

e|---------------------------------|
B|---------------------------------|
G|-----------------7-7-7-7-7-7-7-7-|
D|-2-2-2-2-2-2-2-2-7-7-7-7-7-7-7-7-|
A|-2-2-2-2-2-2-2-2-5-5-5-5-5-5-5-5-|
E|-0-0-0-0-0-0-0-0-----------------|
  . . . . . . . . . . . . . . . .


 [chorus]
e|-----------------------------------------------------------------|
B|-----------------------------------------------------------------|
G|-9-9-9-9-9-9-9-9-11-11-11-11-11-11-11-11-12-12-12-12-12-12-12-12-|
D|-x-x-x-x-x-x-x-x--x--x--x--x--x--x--x--x--x--x--x--x--x--x--x--x-|
A|-7-7-7-7-7-7-7-7--9--9--9--9--9--9--9--9-10-10-10-10-10-10-10-10-|
E|-----------------------------------------------------------------|

e|-------------------------|
B|-------------------------|
G|-------------------------|
D|-12--12-10-10-9-9-7------|
A|-------------------------|
E|-------------------------|

e|-----------------------------------------------------------------|
B|-----------------------------------------------------------------|
G|-9-9-9-9-9-9-9-9-11-11-11-11-11-11-11-11-12-12-12-12-12-12-12-12-|
D|-x-x-x-x-x-x-x-x--x--x--x--x--x--x--x--x--x--x--x--x--x--x--x--x-|
A|-7-7-7-7-7-7-7-7--9--9--9--9--9--9--9--9-10-10-10-10-10-10-10-10-|
E|-----------------------------------------------------------------|

e|-------------------------|
B|-------------------------|
G|-12-12-12-12-12-12-12-12-|
D|--x--x--x--x--x--x--x--x-|
A|-10-10-10-10-10-10-10-10-|
E|-------------------------|

e|-----------------------------------------------------------------|
B|-----------------------------------------------------------------|
G|-9-9-9-9-9-9-9-9-11-11-11-11-11-11-11-11-12-12-12-12-12-12-12-12-|
D|-x-x-x-x-x-x-x-x--x--x--x--x--x--x--x--x--x--x--x--x--x--x--x--x-|
A|-7-7-7-7-7-7-7-7--9--9--9--9--9--9--9--9-10-10-10-10-10-10-10-10-|
E|-----------------------------------------------------------------|

e|-------------------------|
B|-------------------------|
G|-12-12-12-12-12-12-12-12-|
D|--x--x--x--x--x--x--x--x-|
A|-10-10-10-10-10-10-10-10-|
E|-------------------------|

e|----------------------------------------------------------------------|
B|----------------------------------------------------------------------|
G|-9-9-9-9-9-9-9-9-9-9-9-9-9-9-9-9-11-7-7-7-7-7-7-7-7-7-7-7-7-7-7-7-7-7-|
D|-x-x-x-x-x-x-x-x-x-x-x-x-x-x-x-x--x-7-7-7-7-7-7-7-7-7-7-7-7-7-7-7-7-7-|
A|-7-7-7-7-7-7-7-7-7-7-7-7-7-7-7-7--9-5-5-5-5-5-5-5-5-5-5-5-5-5-5-5-5-5-|
E|------------------------------------.-.-.-.-.-.-.-.-------------------|


 [outro]
e|----------------------------------------------------|
B|----------------------------------------------------|
G|---------------5--5-5--5-5-5-7--7-7--7-7-7----------|
D|-2--2-2--2-2-2-5--5-5--5-5-5-7--7-7--7-7-7-5-4-7-4-5|
A|-2--2-2--2-2-2-3--3-3--3-3-3-5--5-5--5-5-5-5-4-7-4-5|
E|-0--0-0--0-0-0-----------------------------3-2-5-2-3|

===========================================================================


GUITAR 2

 intro-slightly distroted-listen for
 timing
e|-------------|x2
B|-------------|
G|-9----5----7-|
D|-x----x----x-|
A|-7----3----5-|
E|-------------|

e|------------------|
B|------------------|
G|-5----7---------7-|
D|-x----x----2----x-|
A|-3----5----x----5-|
E|-----------0------|

e|--------------------------------------------|
B|--------------------------------------------|
G|-5----7---------------------7-7-7-7-7-7-7-7-|
D|-x----x-----2-2-2-2-2-2-2-2-7-7-7-7-7-7-7-7-|
A|-3----5-----2-2-2-2-2-2-2-2-5-5-5-5-5-5-5-5-|
E|------------0-0-0-0-0-0-0-0-----------------|
             . . . . . . . . . . . .

 [pre-chorus] distorted
e|----------------------------------------------------|
B|----------------------------------------------------|
G|---------------5--5-5--5-5-5-7--7-7--7-7-7----------|
D|-2--2-2--2-2-2-5--5-5--5-5-5-7--7-7--7-7-7-5-4-7-4-5|
A|-2--2-2--2-2-2-3--3-3--3-3-3-5--5-5--5-5-5-5-4-7-4-5|
E|-0--0-0--0-0-0-----------------------------3-2-5-2-3|

e|-------------------------------------------------------|
B|-------------------------------------------------------|
G|---------------5--5-5--5-5-5-7--7-7--7-7-7-------------|
D|-2--2-2--2-2-2-5--5-5--5-5-5-7--7-7--7-7-7-5-5-4-5-4---|
A|-2--2-2--2-2-2-3--3-3--3-3-3-5--5-5--5-5-5-5-5-4-5-4---|
E|-0--0-0--0-0-0-----------------------------3-3-2-3-2p0-|


 [chorus]
e|---------------------------------|x3
B|---------------------------------|
G|-5-5-5-5-7-7-7-7-9-9-9-9-9-9-9-9-|
D|-5-5-5-5-7-7-7-7-9-9-9-9-9-9-9-9-|
A|-3-3-3-3-5-5-5-5-7-7-7-7-7-7-7-7-|
E|---------------------------------|

e|---------------------------------------------------|
B|---------------------------------------------------|
G|-5-5-5-5-5-5-5-5-7-7-7-7-7-7-7-7-7-7-7-7-7-7-7-7-7-|
D|-5-5-5-5-5-5-5-5-7-7-7-7-7-7-7-7-7-7-7-7-7-7-7-7-7-|
A|-3-3-3-3-3-3-3-3-5-5-5-5-5-5-5-5-5-5-5-5-5-5-5-5-5-|
E|-------------------.-.-.-.-.-.-.-.-----------------|


 [pre-chorus] distorted
e|----------------------------------------------------|
B|----------------------------------------------------|
G|---------------5--5-5--5-5-5-7--7-7--7-7-7----------|
D|-2--2-2--2-2-2-5--5-5--5-5-5-7--7-7--7-7-7-5-4-7-4-5|
A|-2--2-2--2-2-2-3--3-3--3-3-3-5--5-5--5-5-5-5-4-7-4-5|
E|-0--0-0--0-0-0-----------------------------3-2-5-2-3|

e|-------------------------------------------------------|
B|-------------------------------------------------------|
G|---------------5--5-5--5-5-5-7--7-7--7-7-7-------------|
D|-2--2-2--2-2-2-5--5-5--5-5-5-7--7-7--7-7-7-5-5-4-5-4---|
A|-2--2-2--2-2-2-3--3-3--3-3-3-5--5-5--5-5-5-5-5-4-5-4---|
E|-0--0-0--0-0-0-----------------------------3-3-2-3-2p0-|


 [chorus]
e|---------------------------------|x3
B|---------------------------------|
G|-5-5-5-5-7-7-7-7-9-9-9-9-9-9-9-9-|
D|-5-5-5-5-7-7-7-7-9-9-9-9-9-9-9-9-|
A|-3-3-3-3-5-5-5-5-7-7-7-7-7-7-7-7-|
E|---------------------------------|

e|---------------------------------------------------|
B|---------------------------------------------------|
G|-5-5-5-5-5-5-5-5-7-7-7-7-7-7-7-7-7-7-7-7-7-7-7-7-7-|
D|-5-5-5-5-5-5-5-5-7-7-7-7-7-7-7-7-7-7-7-7-7-7-7-7-7-|
A|-3-3-3-3-3-3-3-3-5-5-5-5-5-5-5-5-5-5-5-5-5-5-5-5-5-|
E|-------------------.-.-.-.-.-.-.-.-----------------|


 [bridge]
e|------------------------------------------------|
B|------------------------------------------------|
G|-------------4--4--4--4--5--5--7--7--5--5--5-xx-|
D|-2--2--2--2--4--4--4--4--5--5--7--7--5--5--5-xx-|
A|-2--2--2--2--2--2--2--2--3--3--5--5--3--3--3-xx-|
E|-0--0--0--0-------------------------------------|

e|------------------------------------------------|
B|------------------------------------------------|
G|-------------4--4--4--4------9---7--------------|
D|-2--2--2--2--4--4--4--4--2---9---7--------------|
A|-2--2--2--2--2--2--2--2--2---7---5--------------|
E|-0--0--0--0--------------0----------------------|

 intro-slightly distroted-listen for
 timing
e|-------------|x2
B|-------------|
G|-9----5----7-|
D|-9----5----7-|
A|-7----3----5-|
E|-------------|

e|------------------|
B|------------------|
G|-5----7----9----7-|
D|-5----7----9----7-|
A|-3----5----7----5-|
E|------------------|

e|----------------------------------------|
B|----------------------------------------|
G|-5----7-----------------7-7-7-7-7-7-7-7-|
D|-5----7-2-2-2-2-2-2-2-2-7-7-7-7-7-7-7-7-|
A|-3----5-2-2-2-2-2-2-2-2-5-5-5-5-5-5-5-5-|
E|--------0-0-0-0-0-0-0-0-----------------|
         . . . . . . . . . . . . . . . .


 [chorus]
e|---------------------------------|x3
B|---------------------------------|
G|-5-5-5-5-7-7-7-7-9-9-9-9-9-9-9-9-|
D|-5-5-5-5-7-7-7-7-9-9-9-9-9-9-9-9-|
A|-3-3-3-3-5-5-5-5-7-7-7-7-7-7-7-7-|
E|---------------------------------|

e|---------------------------------------------------|
B|---------------------------------------------------|
G|-5-5-5-5-5-5-5-5-7-7-7-7-7-7-7-7-7-7-7-7-7-7-7-7-7-|
D|-5-5-5-5-5-5-5-5-7-7-7-7-7-7-7-7-7-7-7-7-7-7-7-7-7-|
A|-3-3-3-3-3-3-3-3-5-5-5-5-5-5-5-5-5-5-5-5-5-5-5-5-5-|
E|-------------------.-.-.-.-.-.-.-.-----------------|


 [outro] distorted
e|----------------------------------------------------|
B|----------------------------------------------------|
G|---------------5--5-5--5-5-5-7--7-7--7-7-7----------|
D|-2--2-2--2-2-2-5--5-5--5-5-5-7--7-7--7-7-7-5-4-7-4-5|
A|-2--2-2--2-2-2-3--3-3--3-3-3-5--5-5--5-5-5-5-4-7-4-5|
E|-0--0-0--0-0-0-----------------------------3-2-5-2-3|

===========================================================================


GUITAR 3

Im sure that there is more but for now
this is what i have. this also has a wierd
effect that makes it play faster near the end.

 intro-gradually get really fast
 (yes in the back of the boolet it says
 Shane (lead singer) plays a third
 guitar in this song.)
e|----------[---------------------------------------------|
B|-(15)-----[-(12)--------(12)--------(8)-------(8)-------|
G|---(14)---[----(12)--------(12)-------(11)------(11)----|
D|-----(12)-[-------(12)--------(12)-------(12)------(12--|
A|----------[---------------------------------------------|
E|----------[---------------------------------------------|

e|---------------------------------------------|xas many needed
B|-(15)-------(15)-------(15)-------(15)-------|
G|----(14)-------(14)-------(14)-------(14)----|
D|-------(12)-------(12)-------(12)-------(12)-|
A|---------------------------------------------|
E|---------------------------------------------|
===========================================================================
thanks
===========================================================================
lyrics

the drugs
begin
to peak
a smile
of joy
arrives in me
but sedation changes to
panic and nausea
and breath starts to shorten
and heart beats pound softer
you wont
try and save me
you just want to hurt me
and leave me desperate
you taught my heart
a sence i never knew i had
i can forget
the times that i was lost
and depressed
from the awful truth
how do you do it
your my heroine
you wont
leave me
alone
chisel
my heart out of stone
i give in every time
i bet you laugh
at the thought of me
thinking for myself
i bet you
believe
that im better off
with you than someone else
your face arrives again
a hope i had becomes surreal
but under your cover
more toture than pleasure
and just past your lips
theres more anger than laughter
not now
or froever
will i ever change you
i know that
to go on
ill break you my habbit
i will
save my
self


===========================================================================

| /  slide up
| \  slide down
| h  hammer-on
| p  pull-off
| ~  vibrato
| +  harmonic
| x  Mute note
============================================================================
Suggest correction
What's this?
You can suggest a correction to this tab. Community and Mods will review your correction and vote to approve or reject it.
comments
print report bad tab
69 comments total. Showing first comments.
0 reply
fret13 2,029 wrote on August 17 2006, 09:08 pm

how can this be one star its the same as ver 2 except it has the rest and its right im thinking whoever rated this one star is one of the other tabs autors i could be rong but mine isnt 1 star.

+5 reply
screamokid 254 wrote on August 18 2006, 07:38 pm

e |---------------------------------------------------------|
B |---------------------------------------------------------|
G |---4---0-------------0-------------0------0------0-------|
D |-----5----5-0----0-5----5-0----0-4----4------4------4----|
A |--------------3-------------5-----------5------5------5--|
E |-0-------------------------------------------------------|


try this for the intro, i got bored like a week ago and figured it out its perfect and a little easier to play, but i gave it a 5 im gunna slap the ******* that rated it 1

0 reply
fret13 2,029 wrote on August 18 2006, 07:39 pm

thanks ill update it

guest
You may want to rate the tab now too:
select rating
Please do not post tabs as comments. Select "correction" instead!