Oops, an error
Loading. Please wait.

My Heroine Tab

version 4
version 4

Whole song

43,544 views 24 this week
3 commentsread comments
1 2 3 4 5
x 7
add to favorites
launch autoscroll
font size
0
reset
how to read this tab
guitar tuner
Autoscroll
slow
fast
+/-
esc
set tempo
stop
Help us to improve Ultimate-Guitar.com Take our survey!
×
Legend:
~ = vibrato
. = palm muting

Intro:
Guitar 1
|-------------------------------------------------|
|-------------------------------------------------|
|---4---0-----------0-----------0-----0-----0-----| repeat twice
|-----5---5-0---0-5---5-0---0-4---4-----4-----4---|
|-------------3-----------5---------5-----5-----5-|
|-0-----------------------------------------------|

Verse:
Guitar 1
|-------------------------------------------------|
|-------------------------------------------------|
|---4---0-----------0-----------0-----0-----0-----| repeat three times
|-----5---5-0---0-5---5-0---0-4---4-----4-----4---|
|-------------3-----------5---------5-----5-----5-|
|-0-----------------------------------------------|

|--------------------------------22222222-|
|--------------------------------33333333-|
|---4---0-----------0------------22222222-|
|-----5---5-0---0-5-----22222222-00000000-|
|-------------3---------22222222----------|
|-0---------------------00000000----------|

Prechorus:
Guitar 1
|-----------0-00-000------------------------|
|-----------1-11-111------------------------|
|-----------0-00-000--0-00-000--------------|
|-2-22-222--2-22-222--4-44-444--5-4-7-4-5-4-|
|-2-22-222--3-33-333--5-55-555--5-5-5-5-5-5-|
|-0-00-000----------------------0-0-0-0-0-0-|
  . .. ...  . .. ...  . .. ...  . . . . . .

|-----------0-00-000------------------------|
|-----------1-11-111------------------------|
|-----------0-00-000--0-00-000--------------|
|-2-22-222--2-22-222--4-44-444--5-5-4-5-4-0-|
|-2-22-222--3-33-333--5-55-555--5-5-5-5-5-0-|
|-0-00-000----------------------0-0-0-0-0-0-|
  . .. ...  . .. ...  . .. ...  . . . . . .

Chorus:
Guitar 1
|-0-0-000--2-22-222------------------------|
|-1-1-111--3-33-333------------------------|
|-0-0-000--2-22-222-----------77-55-44-2-2-| play 1st and 4th part
|-2-2-222--0-00-000--2-2-222---------------|
|-3-3-333------------2-2-222---------------|
|-0-0-000------------0-0-000---------------|

|-0-0-000--2-22-222--------------------|
|-1-1-111--3-33-333--------------------|
|-0-0-000--2-22-222--------------------| play 2nd and 3rd part
|-2-2-222--0-00-000--2-2-222--2-22-222-|
|-3-3-333------------2-2-222--2-22-222-|
|-0-0-000------------0-0-000--0-00-000-|

|-000000000000000--22222222222222-|
|-111111111111111--33333333333333-|
|-000000000000000--22222222222222-|
|-222222222222222--00000000000000-|
|-333333333333333-----------------|
|-000000000000000-----------------|

Prechorus:
Guitar 1
|-----------0-00-000--2-22-222--2-22-222-|
|-----------1-11-111--3-33-333--3-33-333-|
|-----------0-00-000--2-22-222--2-22-222-| repeat twice
|-2-22-222--2-22-222--0-00-000--0-00-000-|
|-2-22-222--3-33-333---------------------|
|-0-00-000-------------------------------|

Chorus:
Guitar 1
|-0-0-000--2-22-222------------------------|
|-1-1-111--3-33-333------------------------|
|-0-0-000--2-22-222-----------77-55-44-2-2-| play 1st and 4th part
|-2-2-222--0-00-000--2-2-222---------------|
|-3-3-333------------2-2-222---------------|
|-0-0-000------------0-0-000---------------|

|-0-0-000--2-22-222--------------------|
|-1-1-111--3-33-333--------------------|
|-0-0-000--2-22-222--------------------| play 2nd and 3rd part
|-2-2-222--0-00-000--2-2-222--2-22-222-|
|-3-3-333------------2-2-222--2-22-222-|
|-0-0-000------------0-0-000--0-00-000-|

|-000000000000000--22222222222222-|
|-111111111111111--33333333333333-|
|-000000000000000--22222222222222-|
|-222222222222222--00000000000000-|
|-333333333333333-----------------|
|-000000000000000-----------------|

Bridge:
Guitar 1 (listen to the song for exact strumming)
|-3>-0>----2>-0>-|
|-3>-3>----3>-1>-|
|-0>-3>----2>-0>-|
|-0>-3>-2>-0>-2>-|
|-2>-2>-2>----3>-|
|-3>-0>-0>----0>-|

|-3>-0>----2~-0~-|
|-3>-3>----3~-1~-|
|-0>-3>----2~-0~-|
|-0>-3>-2~-0~-2~-|
|-2>-2>-2~----3~-|
|-3>-0>-0~----0~-|

Verse:
Guitar 1
|-------------------------------------------------|
|-------------------------------------------------|
|---4---0-----------0-----------0-----0-----0-----| repeat three times
|-----5---5-0---0-5---5-0---0-4---4-----4-----4---|
|-------------3-----------5---------5-----5-----5-|
|-0-----------------------------------------------|

|--------------------------------22222222-|
|--------------------------------33333333-|
|---4---0-----------0------------22222222-|
|-----5---5-0---0-5-----22222222-00000000-|
|-------------3---------22222222----------|
|-0---------------------00000000----------|

Chorus:
Guitar 1
|-0-0-000--2-22-222------------------------|
|-1-1-111--3-33-333------------------------|
|-0-0-000--2-22-222-----------77-55-44-2-2-| play 1st and 4th part
|-2-2-222--0-00-000--2-2-222---------------|
|-3-3-333------------2-2-222---------------|
|-0-0-000------------0-0-000---------------|

|-0-0-000--2-22-222--------------------|
|-1-1-111--3-33-333--------------------|
|-0-0-000--2-22-222--------------------| play 2nd and 3rd part
|-2-2-222--0-00-000--2-2-222--2-22-222-|
|-3-3-333------------2-2-222--2-22-222-|
|-0-0-000------------0-0-000--0-00-000-|

|-000000000000000--22222222222222-|
|-111111111111111--33333333333333-|
|-000000000000000--22222222222222-|
|-222222222222222--00000000000000-|
|-333333333333333-----------------|
|-000000000000000-----------------|

Last Prechorus:
Guitar 1
|-----------0-00-000--2-22-222--2-22-222----|
|-----------1-11-111--3-33-333--3-33-333----|
|-----------0-00-000--2-22-222--2-22-222----| 
|-2-22-222--2-22-222--0-00-000--0-00-000--2-|
|-2-22-222--3-33-333----------------------2-|
|-0-00-000--------------------------------0-|
                                          .
Verse:
Guitar 2

|-0~----------0~----------2~-|
|-0~----------1~----------3~-|
|-0~----------0~----------2~-| repeat twice
|-2~----------2~----------0~-|
|-2~----------3~----------0~-|
|-0~----------0~----------0~-|

|-0~----------2~----------0~--------0~----------2~-----------22222222-|
|-1~----------3~----------0~--------1~----------3~-----------33333333-|
|-0~----------2~----------0~--------0~----------2~-----------22222222-|
|-2~----------0~----------2~--------2~----------0~--22222222-00000000-|
|-3~----------0~----------2~--------3~----------0~--22222222----------|
|-0~----------0~----------0~--------0~----------0~--00000000----------|

Prechorus:
Guitar 2
|-----------0-00-000--2-22-222--2-22-222-|
|-----------1-11-111--3-33-333--3-33-333-|
|-----------0-00-000--2-22-222--2-22-222-| repeat twice
|-2-22-222--2-22-222--0-00-000--0-00-000-|
|-2-22-222--3-33-333---------------------|
|-0-00-000-------------------------------|
  . .. ...  . .. ...  . .. ...  . .. ...

Chorus:
Guitar 2
|-0-0-000--2-22-222--------------------|
|-1-1-111--3-33-333--------------------|
|-0-0-000--2-22-222--------------------| repeat four times
|-2-2-222--0-00-000--2-2-222--2-22-222-|
|-3-3-333------------2-2-222--2-22-222-|
|-0-0-000------------0-0-000--0-00-000-|

|-000000000000000--22222222222222-|
|-111111111111111--33333333333333-|
|-000000000000000--22222222222222-|
|-222222222222222--00000000000000-|
|-333333333333333-----------------|
|-000000000000000-----------------|

Prechorus:
Guitar 2
|-----------0-00-000--2-22-222--2-22-222-|
|-----------1-11-111--3-33-333--3-33-333-|
|-----------0-00-000--2-22-222--2-22-222-| repeat twice
|-2-22-222--2-22-222--0-00-000--0-00-000-|
|-2-22-222--3-33-333---------------------|
|-0-00-000-------------------------------|

Chorus:
Guitar 2
|-0-0-000--2-22-222--------------------|
|-1-1-111--3-33-333--------------------|
|-0-0-000--2-22-222--------------------| repeat four times
|-2-2-222--0-00-000--2-2-222--2-22-222-|
|-3-3-333------------2-2-222--2-22-222-|
|-0-0-000------------0-0-000--0-00-000-|

|-000000000000000--22222222222222-|
|-111111111111111--33333333333333-|
|-000000000000000--22222222222222-|
|-222222222222222--00000000000000-|
|-333333333333333-----------------|
|-000000000000000-----------------|

Bridge:
Guitar 2 (listen to the song for exact strumming)
|-3>-0>----2>-0>-|
|-3>-3>----3>-1>-|
|-0>-3>----2>-0>-|
|-0>-3>-2>-0>-2>-|
|-2>-2>-2>----3>-|
|-3>-0>-0>----0>-|

|-3>-0>----2~-0~-|
|-3>-3>----3~-1~-|
|-0>-3>----2~-0~-|
|-0>-3>-2~-0~-2~-|
|-2>-2>-2~----3~-|
|-3>-0>-0~----0~-|

Verse:
Guitar 2
|-0~----------0~----------2~-|
|-0~----------1~----------3~-|
|-0~----------0~----------2~-| repeat twice
|-2~----------2~----------0~-|
|-2~----------3~----------0~-|
|-0~----------0~----------0~-|

|-0~----------2~----------0~--------0~----------2~-----------22222222-|
|-1~----------3~----------0~--------1~----------3~-----------33333333-|
|-0~----------2~----------0~--------0~----------2~-----------22222222-|
|-2~----------0~----------2~--------2~----------0~--22222222-00000000-|
|-3~----------0~----------2~--------3~----------0~--22222222----------|
|-0~----------0~----------0~--------0~----------0~--00000000----------|

Chorus:
Guitar 2
|-0-0-000--2-22-222--------------------|
|-1-1-111--3-33-333--------------------|
|-0-0-000--2-22-222--------------------| repeat four times
|-2-2-222--0-00-000--2-2-222--2-22-222-|
|-3-3-333------------2-2-222--2-22-222-|
|-0-0-000------------0-0-000--0-00-000-|

|-000000000000000--22222222222222-|
|-111111111111111--33333333333333-|
|-000000000000000--22222222222222-|
|-222222222222222--00000000000000-|
|-333333333333333-----------------|
|-000000000000000-----------------|

Last Prechorus:
Guitar 2
|-----------0-00-000--2-22-222--2-22-222----|
|-----------1-11-111--3-33-333--3-33-333----|
|-----------0-00-000--2-22-222--2-22-222----| 
|-2-22-222--2-22-222--0-00-000--0-00-000--2-|
|-2-22-222--3-33-333----------------------2-|
|-0-00-000--------------------------------0-|
                                          .
LyRiCs:
The drugs begin to peak
A smile of joy arrives in me
But sedation changes to panic and nausea
And breath starts to shorten
And heartbeats pound softer
You won't try to save me!
You just want to hurt me and leave me desperate!

You taught my heart, a sense I never knew I had.
I can forget, the times that I was 
Lost and depressed from the awful truth
How do you do it?
You're my heroine!

You won't leave me alone!
Chisel my heart out of stone, I give in everytime.

You taught my heart, a sense I never knew I had
I can forget, the times that I was 
Lost and depressed from the awful truth
How do you do it?
You're my heroine!

I bet you laugh, at the thought of me thinking for myself. (myself)
I bet you believe, that I'm better off with you than someone else.
Your face arrives again, all hope I had becomes surreal.
But under your covers more torture than pleasure
And just past your lips there's more anger than laughter
Not now or forever will I ever change you
I know that to go on, I'll break you, my habit!

You taught my heart, a sense I never knew I had.
I can forget, the times when I was 
Lost and depressed from the awful truth
How do you do it?
You're my heroine!

I will save myself!

-END-
Suggest correction
comments
print report bad tab
3 comments total.
0 reply
xwillasx 10 Dec 20, 2008 03:50 AM

Dude your verse is way off. WAY OFF

0 reply
xwillasx 10 Dec 20, 2008 03:51 AM

And chorus and pretty much the whole tab besides maybe the intro

0 reply
nzimmerman6 10 Nov 24, 2013 02:18 PM

Your version is pretty bad...

guest
You may want to rate the tab now too:
select rating
Wanna post a correction for this tab? Suggest correction