Oops, an error
Loading. Please wait.

November tab

version 1
version 1

Whole song

Interactive

10,348 views 9 this week
6 commentsread comments
1 2 3 4 5
x 7
add to favorites
×
Save as Personal and add changes to this tab that will be seen only by you. Learn more ›
×
You can save this tab as Personal to edit and correct it or add notes. All changes will be seen only by you. Learn more »
launch autoscroll
font size
0
reset
how to read this tab
guitar tuner
edit
Autoscroll
slow
fast
+/-
esc
set tempo
stop
Drop D tuning my bad

GUITAR ONE'S PARTS


0:00
INTRO:
E#|----------------------------------------------------------------|
B#|----------------------------------------------------------------|
G#|----------------------------------------------------------------|
D#|---2-2-2-2-2---2-2-2-2-2---2-2-2-2-2---2-2-2-2-2-2-2------------|
A#|---2-2-2-2-2---2-2-2-2-2---2-2-2-2-2---2-2-2-2-2-2-2------------|
D#|---2-2-2-2-2---2-2-2-2-2---2-2-2-2-2---2-2-2-2-2-2-2------------|
P.M.  . . . . .   . . . . .   . . . . .   . . . . . . .

cont.
E#|----------------------------------------------------------------|
B#|----------------------------3/5-5-5-5-5-5-5-5-7-7-7-7-7-7-7-7---|
G#|----------------------------------------------4-4-4-4-4-4-4-4---|
D#|---2-2-2-2-2-2-2-2-2-2-2-2--------------------------------------|
A#|---2-2-2-2-2-2-2-2-2-2-2-2--------------------------------------|
D#|---2-2-2-2-2-2-2-2-2-2-2-2--------------------------------------|
P.M.  . . . . . . . . . . . .


0:26
VERSE:
D#|---------------------------------------------|
A#|---------------------------------------------|
F#|---------------------------------------------|
C#|--2~--0~--2~--5~--0~--0--0-0-0--0--0-0-0-0---|
G#|--2~--0~--2~--5~--0~--0--0-0-0--0--0-0-0-0---|
C#|--2~--0~--2~--5~--0~--0--0-0-0--0--0-0-0-0---|
P.M.                     .  . . .  .  . . . .

0:42
E#|------------------------------------------------------|
B#|------------------------------------------------------|
G#|------------------------------------------------------|
D#|--2--2-2-2-2--2--2-2-2-2--5--5-5-5-5--5--5-5-5-5------|
A#|--2--2-2-2-2--2--2-2-2-2--5--5-5-5-5--5--5-5-5-5------|
D#|--2--2-2-2-2--2--2-2-2-2--5--5-5-5-5--5--5-5-5-5------|
P.M.    . . . .     . . . .     . . . .     . . . .

E#|---------------------------------------------------------|
B#|---------------------------------------------------------|
G#|--------------------------11-11-11--9-9-9--7-7-7--9-9-9--|
D#|--0--0-0-0-0--0--0-0-0-0---x--x--x--x-x-x--x-x-x--x-x-x--|
A#|--0--0-0-0-0--0--0-0-0-0---9--9--9--7-7-7--5-5-5--7-7-7--|
D#|--0--0-0-0-0--0--0-0-0-0---------------------------------|
P.M.    . . . .     . . . .

E#|------------------------------------------------------|
B#|------------------------------------------------------|
G#|------------------------------------------------------|
D#|--2--2-2-2-2--2--2-2-2-2--5--5-5-5-5--5--5-5-5-5------|
A#|--2--2-2-2-2--2--2-2-2-2--5--5-5-5-5--5--5-5-5-5------|
D#|--2--2-2-2-2--2--2-2-2-2--5--5-5-5-5--5--5-5-5-5------|
P.M.    . . . .     . . . .     . . . .     . . . .


E#|---------------------------------------------------------------|
B#|---------------------------------------------------------------|
G#|---------------------------7-7-7-7--9--7-7-7-7--9--------------|
D#|--0--0-0-0-0--0--0-0-0-0---x-x-x-x--x--x-x-x-x--x--------------|
A#|--0--0-0-0-0--0--0-0-0-0---5-5-5-5--7--5-5-5-5--7--------------|
D#|--0--0-0-0-0--0--0-0-0-0---------------------------------------|
P.M.    . . . .     . . . .

E#|------------------------------------------------------|
B#|------------------------------------------------------|
G#|------------------------------------------------------|
D#|--2--2-2-2-2--2--2-2-2-2--5--5-5-5-5--5--5-5-5-5------|
A#|--2--2-2-2-2--2--2-2-2-2--5--5-5-5-5--5--5-5-5-5------|
D#|--2--2-2-2-2--2--2-2-2-2--5--5-5-5-5--5--5-5-5-5------|
P.M.    . . . .     . . . .     . . . .     . . . .

E#|-------------------------------------------------------|
B#|-------------------------------------------------------|
G#|---------------------------7-7-7--9-9-9--14-14-14------|
D#|--0--0-0-0-0--0--0-0-0-0---x-x-x--x-x-x---x--x--x------|
A#|--0--0-0-0-0--0--0-0-0-0---5-5-5--7-7-7--12-12-12------|
D#|--0--0-0-0-0--0--0-0-0-0-------------------------------|
P.M.    . . . .     . . . .



1:06
CHORUS:
E#|---------------------------------------------|
B#|---------------------------------------------|
G#|--9-(x10)------------------------------------|
D#|--9------10-(x10)-9-(x10)-10-(x5)-12-(x5)----|
A#|--7------10-------9-------10------12---------|
D#|---------10-------9-------10------12---------|

cont.                                       (x2)
E#|--------------------------------------------|
B#|--------------------------------------------|
G#|--9-(x10)-----------------------------------|
D#|--9------10-(x10)-5-(x15)-4--4-4-4-4--------|
A#|--7------10-------5-------4--4-4-4-4--------|
D#|---------10-------5-------4--4-4-4-4--------|
P.M.                            . . . .


1:37(only first guitar plays)

1:42
VERSE:
E#|------|
B#|------|
G#|------|
D#|--0~--|
A#|--0~--|
D#|--0~--|


D#|------------------------------------------------------|
B#|------------------------------------------------------|
G#|------------------------------------------------------|
D#|--2--2-2-2-2--2--2-2-2-2--5--5-5-5-5--5--5-5-5-5------|
A#|--2--2-2-2-2--2--2-2-2-2--5--5-5-5-5--5--5-5-5-5------|
D#|--2--2-2-2-2--2--2-2-2-2--5--5-5-5-5--5--5-5-5-5------|
P.M.    . . . .     . . . .     . . . .     . . . .


E#|---------------------------------------------------------------|
B#|---------------------------------------------------------------|
G#|---------------------------7-7-7-7--9--7-7-7-7--9--------------|
D#|--0--0-0-0-0--0--0-0-0-0---x-x-x-x--x--x-x-x-x--x--------------|
A#|--0--0-0-0-0--0--0-0-0-0---5-5-5-5--7--5-5-5-5--7--------------|
D#|--0--0-0-0-0--0--0-0-0-0---------------------------------------|
P.M.    . . . .     . . . .


E#|------------------------------------------------------|
B#|------------------------------------------------------|
G#|------------------------------------------------------|
D#|--2--2-2-2-2--2--2-2-2-2--5--5-5-5-5--5--5-5-5-5------|
A#|--2--2-2-2-2--2--2-2-2-2--5--5-5-5-5--5--5-5-5-5------|
D#|--2--2-2-2-2--2--2-2-2-2--5--5-5-5-5--5--5-5-5-5------|
P.M.    . . . .     . . . .     . . . .     . . . .

E#|---------------------------------------------------------|
B#|---------------------------------------------------------|
G#|--------------------------11-11-11--9-9-9--7-7-7--9-9-9--|
D#|--0--0-0-0-0--0--0-0-0-0---x--x--x--x-x-x--x-x-x--x-x-x--|
A#|--0--0-0-0-0--0--0-0-0-0---9--9--9--7-7-7--5-5-5--7-7-7--|
D#|--0--0-0-0-0--0--0-0-0-0---------------------------------|
P.M.    . . . .     . . . .

E#|------------------------------------------------------|
B#|------------------------------------------------------|
G#|------------------------------------------------------|
D#|--2--2-2-2-2--2--2-2-2-2--5--5-5-5-5--5--5-5-5-5------|
A#|--2--2-2-2-2--2--2-2-2-2--5--5-5-5-5--5--5-5-5-5------|
D#|--2--2-2-2-2--2--2-2-2-2--5--5-5-5-5--5--5-5-5-5------|
P.M.    . . . .     . . . .     . . . .     . . . .

E#|-------------------------------------------------------|
B#|-------------------------------------------------------|
G#|---------------------------7-7-7--9-9-9--14-14-14------|
D#|--0--0-0-0-0--0--0-0-0-0---x-x-x--x-x-x---x--x--x------|
A#|--0--0-0-0-0--0--0-0-0-0---5-5-5--7-7-7--12-12-12------|
D#|--0--0-0-0-0--0--0-0-0-0-------------------------------|
P.M.    . . . .     . . . .


2:10
CHORUS


2:41
BRIDGE:
E#|-------------------------------------------------------------------|
B#|-------------------------------------------------------------------|
G#|--9-9-9-9-9--------------------------------------------------------|
D#|--9-9-9-9-9--9-9--10-10-10-10-10-10-10--9-9-9-9--9--9--9--9--9--9--|
A#|--7-7-7-7-7--9-9--10-10-10-10-10-10-10--9-9-9-9--9--9--9--9--9--9--|
D#|-------------9-9--10-10-10-10-10-10-10--9-9-9-9--10-10-10-12-12-12-|
P.M. . . . .    .    .

cont.
E#|----------------------------------------------------------|
B#|----------------------------------------------------------|
G#|-----9-9-9-9-9--------------------------------------------|
D#|-----9-9-9-9-9--9-9--10-10---5-5-5--7--9--9-9-9-9-9-------|
A#|-----7-7-7-7-7--9-9--10-10---5-5-5--7--9--9-9-9-9-9-------|
D#|----------------9-9--10-10---5-5-5--7--9--9-9-9-9-9-------|
P.M.    . . . .    .    .           .

cont.
E#|-------------------------------------------------------------|
B#|-------------------------------------------------------------|
G#|-----9-9-9-9-9--11/12----------------------------------------|
D#|-----9-9-9-9-9---x-x--10-10-10-10-10-10-10--9-9-9-9-9-9-9----|
A#|-----7-7-7-7-7---9/10-10-10-10-10-10-10-10--9-9-9-9-9-9-9----|
D#|----------------------10-10-10-10-10-10-10--9-9-9-9-9-9-9----|
P.M.    . . . .

cont.
E#|------------------------------------------------------------------|
B#|------------------------------------------------------------------|
G#|-------------------------9-9-9-9-9--11/12-------------------------|
D#|---12-12-12-12-12-12-12--9-9-9-9-9---x-x---10-10-10-10-10-10-10---|
A#|---12-12-12-12-12-12-12--7-7-7-7-7---9/10--10-10-10-10-10-10-10---|
D#|---12-12-12-12-12-12-12--------------------10-10-10-10-10-10-10---|
P.M.                        . . . .

cont.
E#|-------------------------------------------------------------------|
B#|-------------------------------------------------------------------|
G#|---------------------------9-9-9-9-9--11/12------------------------|
D#|----5-5-5--7--9-9-9-9-9-9--9-9-9-9-9---x-x---10-10-10-10-10-10-10--|
A#|----5-5-5--7--9-9-9-9-9-9--7-7-7-7-7---9/10--10-10-10-10-10-10-10--|
D#|----5-5-5--7--9-9-9-9-9-9--------------------10-10-10-10-10-10-10--|
P.M.                          . . . .

cont.
E#|------------------------------------------------------------------|
B#|------------------------------------------------------------------|
G#|------------------------------------------9-9-9-9-9--11/12--------|
D#|----9-9-9-9-9-9-9--12-12-12-12-12-12-12---9-9-9-9-9---x-x---------|
A#|----9-9-9-9-9-9-9--12-12-12-12-12-12-12---7-7-7-7-7---9/10--------|
D#|----9-9-9-9-9-9-9--12-12-12-12-12-12-12---------------------------|
P.M.                                         . . . .

cont.
E#|-------------------------------------------|
B#|-------------------------------------------|
G#|-------------------------------------------|
D#|--10-10-10-10-10-10-10--5-5-5--7--9-9~-9~--|
A#|--10-10-10-10-10-10-10--5-5-5--7--9-9~-9~--|
D#|--10-10-10-10-10-10-10--5-5-5--7--9-9~-9~--|


3:14
BREAKDOWN:
E#|------------------------------------------------------|
B#|------------------------------------------------------|
G#|--------------5-5-5--5--4-4-4--4----------------------|
D#|----2-2-2--2--5-5-5--5--4-4-4--4---3/5-4-2------------|
A#|----2-2-2--2--3-3-3--3--2-2-2--2-----------5-2-5------|
D#|----2-2-2--2------------------------------------------|
P.M.   . . .     . . .     . . .

cont.                                                   (x2)
E|---------------------------------------------------------|
B|---------------------------------------------------------|
G|--------------5-5-5--5------------2h4p2-----2h4p2--------|
D|----2-2-2--2--5-5-5--5--5-5-5--5--------5-5-------5-5-5--|
A|----2-2-2--2--3-3-3--3--5-5-5--5-------------------------|
D|----2-2-2--2------------5-5-5--5-------------------------|
P.M.  . . .     . . .     . . .           . .       . .


3:43
OUTRO: (figure out strumming yourself)
                      (x2)
E#|-----------------------|------------------------------------------|
B#|-----------------------|------------------------------------------|
G#|--14-12-14-12-14-12-11-|--17-16-17-16-14-12-17-16-14-12-11-12-11--|
D#|---x--x--x--x--x--x--x-|---x--x--x--x--x--x--x--x--x--x--x--x--x--|
A#|--12-10-12-10-12-10--9-|--15-14-15-14-12-10-15-14-12-10--9-10--9--|
D#|-----------------------|------------------------------------------|

cont.              (x3)                     END
E#|--------------------|------------------------|
B#|--------------------|------------------------|
G#|--17-16-14-12-11-12-|------------------------|
D#|---x--x--x--x--x--x-|---3/5-4-2--------2x----|
A#|--15-14-12-10--9-10-|-----------5-2-5--2x----|
D#|--------------------|------------------2x----|

GUITAR TWO'S PARTS


0:00
INTRO:(figure out strumming)
                                       (x6)
E#|-----------------------------------------|
B#|-----------------------------------------|
G#|--9/12-12-12-1211-11-11--9--9-9-9-9-9----|
D#|--x--x--x--x--x--x--x--x--x--x-x-x-x-x---|
A#|--7/10-10-10-10-9--9--9--7--7-7-7-7-7----|
D#|-----------------------------------------|

E#|-------------------------------------|
B#|--3/5-5-5-5-5-5-5-5-7-7-7-7-7-7-7-7--|
G#|--------------------4-4-4-4-4-4-4-4--|
D#|-------------------------------------|
A#|-------------------------------------|
D#|-------------------------------------|

0:26
VERSE:              vvv FIRST PART vvv
E#|--------------------------------------------------------|
B#|------------------------------------7-7-7-7-7-7---------|
G#|------------------------------4-----4-4-4-4-4-4---------|
D#|--2--2-2-2-2--2--2-2-2--4h5-5---5-5---------------------|
A#|--2--2-2-2-2--2--2-2-2----------------------------------|
D#|--2--2-2-2-2--2--2-2-2----------------------------------|
P.M.    . . . .     . . .      .   . .

cont.               vvv SECOND PART vvv
E#|--------------------------------------------------------|
B#|--------------------------------------------------------|
G#|--------------------------------------------4-----------|
D#|---0--0-0-0-0--0--0-0-0---4h5-5-5p4-4-4h5-5---5---------|
A#|---0--0-0-0-0--0--0-0-0---------------------------------|
D#|---0--0-0-0-0--0--0-0-0---------------------------------|
P.M.     . . . .     . . .       .     .     .

0:34
VERSE (cont.)

REPEAT FIRST PART

0:38
SECOND PART AGAIN (with harmonics at end instead)

E#|--------------------------------------------------------|
B#|--------------------------------------------------------|
G#|----------------------------------------------<7><5><7>-|
D#|---0--0-0-0-0--0--0-0-0---4h5-5-5p4-4-4h5-5-------------|
A#|---0--0-0-0-0--0--0-0-0---------------------------------|
D#|---0--0-0-0-0--0--0-0-0---------------------------------|
P.M.     . . . .     . . .       .     .     .


0:46
SECOND PART

E#|--------------------------------------------------------|
B#|--------------------------------------------------------|
G#|-------------------------------------------------<7>----|
D#|---0--0-0-0-0--0--0-0-0---4h5-5-5p4-4-4h5-5---<7>---<7>-|
A#|---0--0-0-0-0--0--0-0-0---------------------------------|
D#|---0--0-0-0-0--0--0-0-0---------------------------------|
P.M.     . . . .     . . .       .     .     .


0:54
SECOND PART

E#|--------------------------------------------------------|
B#|--------------------------------------------------------|
G#|----------------------------------------------<7><5><7>-|
D#|---0--0-0-0-0--0--0-0-0---4h5-5-5p4-4-4h5-5-------------|
A#|---0--0-0-0-0--0--0-0-0---------------------------------|
D#|---0--0-0-0-0--0--0-0-0---------------------------------|
P.M.     . . . .     . . .       .     .     .


1:02
E#|---------------------------------------------------|
B#|---------------------------------------------------|
G#|---------------------------------------------------|
D#|---0--0-0-0-0--4-4--------4/5-5-5-5-5/7-7-7--------|
A#|---0--0-0-0-0------5-5-5---------------------------|
D#|---0--0-0-0-0--------------------------------------|
P.M.     . . . .      . . .


1:06
CHORUS:
E#|---------------------------------------------|
B#|---------------------------------------------|
G#|--9-(x10)------------------------------------|
D#|--9------10-(x10)-9-(x10)-10-(x5)-12-(x5)----|
A#|--7------10-------9-------10------12---------|
D#|---------10-------9-------10------12---------|

cont.                                       (x2)
E#|--------------------------------------------|
B#|--------------------------------------------|
G#|--9-(x10)-----------------------------------|
D#|--9------10-(x10)-5-(x15)-4--4-4-4-4--------|
A#|--7------10-------5-------4--4-4-4-4--------|
D#|---------10-------5-------4--4-4-4-4--------|
P.M.                            . . . .

1:37
VERSE:
FIRST PART

1:42
SECOND PART:

E#|--------------------------------------------------------|
B#|--------------------------------------------------------|
G#|---------------------------------------------<7><7><7>--|
D#|---0--0-0-0-0--0--0-0-0---4h5-5-5p4-4-4h5-4-------------|
A#|---0--0-0-0-0--0--0-0-0---------------------------------|
D#|---0--0-0-0-0--0--0-0-0---------------------------------|
P.M.     . . . .     . . .       .     .     .


1:50
E#|--------------------------------------------------------|
B#|--------------------------------------------------------|
G#|-------------------------------------------------<7>----|
D#|---0--0-0-0-0--0--0-0-0---4h5-5-5p4-4-4h5-5---<7>---<7>-|
A#|---0--0-0-0-0--0--0-0-0---------------------------------|
D#|---0--0-0-0-0--0--0-0-0---------------------------------|
P.M.     . . . .     . . .       .     .     .


1:58
E#|--------------------------------------------------------|
B#|--------------------------------------------------------|
G#|----------------------------------------------<7><5><7>-|
D#|---0--0-0-0-0--0--0-0-0---4h5-5-5p4-4-4h5-5-------------|
A#|---0--0-0-0-0--0--0-0-0---------------------------------|
D#|---0--0-0-0-0--0--0-0-0---------------------------------|
P.M.     . . . .     . . .       .     .     .


2:06
E#|---------------------------------------------------|
B#|---------------------------------------------------|
G#|---------------------------------------------------|
D#|---0--0-0-0-0--4-4--------4/5-5-5-5-5/7-7-7--------|
A#|---0--0-0-0-0------5-5-5---------------------------|
D#|---0--0-0-0-0--------------------------------------|
P.M.     . . . .      . . .


2:10
CHORUS

2:41  (only guitar one plays)

2:52
BRIDGE
E#|-------------------------------------------------|
B#|-------------------------------------------------|
G#|---12-12-12-12-12--14/16--12-12-12-12-12-12-12---|
D#|----x--x--x--x--x---x--x---x--x--x--x--x--x--x---|
A#|---10-10-10-10-10--12/14--10-10-10-10-10-10-10---|
D#|-------------------------------------------------|
P.M.   .  .  .  .

E#|-------------------------------------------|
B#|-------------------------------------------|
G#|---7-7-7-7-7-7-7--/12-12-12-11-11/1211-----|
D#|---x-x-x-x-x-x-x----x--x--x--x--x--x-x-----|
A#|---5-5-5-5-5-5-5--/10-10-10--9--9/109------|
D#|-------------------------------------------|


E#|-------------------------------------------------|
B#|-------------------------------------------------|
G#|---12-12-12-12-12--14/16--12-12-12-12-12-12-12---|
D#|----x--x--x--x--x---x--x---x--x--x--x--x--x--x---|
A#|---10-10-10-10-10--12/14--10-10-10-10-10-10-10---|
D#|-------------------------------------------------|
P.M.   .  .  .  .


E#|------------------------------------|
B#|------------------------------------|
G#|---7-7-7-7-7-7-7-7-7-7-7-7-7-7/12---|
D#|---x-x-x-x-x-x-x-x-x-x-x-x-x-x--x---|
A#|---5-5-5-5-5-5-5-5-5-5-5-5-5-5/10---|
D#|------------------------------------|


E#|-------------------------------------------------|
B#|-------------------------------------------------|
G#|---12-12-12-12-12--14/16--12-12-12-12-12-12-12---|
D#|----x--x--x--x--x---x--x---x--x--x--x--x--x--x---|
A#|---10-10-10-10-10--12/14--10-10-10-10-10-10-10---|
D#|-------------------------------------------------|
P.M.   .  .  .  .

E#|-----------------------------------------|
B#|-----------------------------------------|
G#|---7-7-7-7-7-7-7--/12-12-12-11-11-11-11--|
D#|---x-x-x-x-x-x-x----x--x--x--x--x--x--x--|
A#|---5-5-5-5-5-5-5--/10-10-10--9--9--9--9--|
D#|-----------------------------------------|

E#|-------------------------------------------------|
B#|-------------------------------------------------|
G#|---12-12-12-12-12--14/16--12-12-12-12-12-12-12---|
D#|----x--x--x--x--x---x--x---x--x--x--x--x--x--x---|
A#|---10-10-10-10-10--12/14--10-10-10-10-10-10-10---|
D#|-------------------------------------------------|
P.M.   .  .  .  .


E#|-----------------------------------|
B#|-----------------------------------|
G#|---7-7-7-7-7-7-7-7-7-7-7-7-7~-7~---|
D#|---x-x-x-x-x-x-x-x-x-x-x-x-x--x----|
A#|---5-5-5-5-5-5-5-5-5-5-5-5-5~-5~---|
D#|-----------------------------------|

3:14
BREAKDOWN:
E#|------------------------------------------------------|
B#|------------------------------------------------------|
G#|--------------5-5-5--5--4-4-4--4---2/4-2--------------|
D#|----2-2-2--2--5-5-5--5--4-4-4--4---------5-4-5-4------|
A#|----2-2-2--2--3-3-3--3--2-2-2--2----------------------|
D#|----2-2-2--2------------------------------------------|
P.M.   . . .     . . .     . . .

cont.                                                   (x2)
E|---------------------------------------------------------|
B|---------------------------------------------------------|
G|--------------5-5-5--5-----------------------------------|
D|----2-2-2--2--5-5-5--5--5-5-5--5--4h5p4-----4h5p4--------|
A|----2-2-2--2--3-3-3--3--5-5-5--5--------7-7-------7-7-7--|
D|----2-2-2--2------------5-5-5--5-------------------------|
P.M.  . . .     . . .     . . .           . .       . .

3:43
OUTRO (figure out strumming yourself)
E#|---------------------------------------|
B#|---------------------------------------|
G#|------5---4--16-14------5--------------|
D#|--2---5---4---x--x--2---5---5---4------|
A#|--2---3---2--14-12--2---3---5---4------|
D#|--2-----------------2-------5---4------|


E#|------------------------------------------------------|
B#|------------------------------------------------------|
G#|----------------5--5-5--5--4-4-4--4--16-14------------|
D#|--2--2-2--2-2-2-5--5-5--5--4-4-4--4---x--x------------|
A#|--2--2-2--2-2-2-3--3-3--3--2-2-2--2--14-12------------|
D#|--2--2-2--2-2-2---------------------------------------|
P.M.    . .    . .    . .     . . .

E#|----------------------------------------------------------------|
B#|----------------------------------------------------------------|
G#|----------------5--5-5--5-----------2/4-2-----------------------|
D#|--2--2-2--2-2-2-5--5-5--5--5-5-5-5--------5-4-5-4--2x-----------|
A#|--2--2-2--2-2-2-3--3-3--3--5-5-5-5-----------------2x-----------|
D#|--2--2-2--2-2-2------------5-5-5-5-----------------2x-----------|
P.M.    . .    . .    . .     . . .
Suggest correction
Creating personal tab
Creating personal tab
You can edit any tab online and save it as your Personal.

You can edit, replace or remove any tab part or add personal notes – all changes will be seen only by you.

Personal tabs can be accessed anytime from any device, even offline.
Learn more »
comments
print report bad tab
6 comments total. Showing first comments.
0 reply
screamokid 379 Aug 30, 2006 04:31 PM

i just realized i put this i put drop c tuning but its actually drop d its perfect other than that, and for everyone rating it 3, please comment it, i want to know what i did wrong

0 reply
gtr-boy 278 Nov 19, 2006 01:45 PM

ok well i just realised its wrong it should be C#/Ab/Db/Gb/Bb/eb

0 reply
mattwilham 241 Jan 07, 2007 11:41 AM

i dont know why this is rated 3..he took it from mxtabs. i still have the print out of it and its the same. anyway..thanks for putting it on here.

guest
You may want to rate the tab now too:
select rating
Wanna post a correction for this tab? Suggest correction