Oops, an error
Loading. Please wait.

Red Light Pledge bass

version 2
version 2

Whole song

Interactive

1,497 views 3 this week
no commentswrite comment
1 2 3 4 5
x 3
add to favorites
×
Save as Personal and add changes to this tab that will be seen only by you. Learn more ›
×
You can save this tab as Personal to edit and correct it or add notes. All changes will be seen only by you. Learn more »
launch autoscroll
font size
0
reset
guitar tuner
edit
Autoscroll
slow
fast
+/-
esc
set tempo
stop
Author
+++++++++++++++++++++++++++++++++
| Silverstein- Red Light Pledge |
+++++++++++++++++++++++++++++++++

Tuning: EADG

Intro
1.
G|----------------------------2-0---|
D|--------------------------------4-|
A|-----------------3~------3~-------|--x2
E|-0~------0~-----------------------|

Verse
"The ending's..."
2.
G|----------------------------2-0---|
D|--------------------------------4-|
A|-----------------3~------3~-------|
E|-0~------0~-----------------------|

"Come back to haunt you..."
3.
G|------------------------------------|
D|------------------------------------|
A|-----------------3~------3~------3x-|
E|-0~------0~-------------------------|

Chorus
"I made a mistake..."
4.
G|--------------------------------------------------------------|
D|-222222-0000-xx----------------222222-0000-xx-----------------|
A|----------------3333-xx-555555-----------------3333-xx-555555-|
E|--------------------------------------------------------------|

"I wanted to tell you..."
5.
G|-------------------------------------------------------------------|
D|--------222--------222-------------------222-----222---------------|
A|-----------------------333333-555555-----------------333333-555555-|
E|-000000-----000000-------------------000-----000-------------------|

Chorus Cont
"Promise me you will be there..."
6.
G|---------------------------------------------------------|
D|---------------222222-222222-----------------------------|
A|-222222-555555---------------222222-555555-333333-333333-|
E|---------------------------------------------------------|

7.
G|----------------------------------------------|
D|---------------222222-222222------------------|
A|-222222-555555---------------222222-555555-3~-|
E|----------------------------------------------|

Chorus
"I made a mistake..."
8.
G|--------------------------------------------------------------|
D|-222222-0000-xx----------------222222-0000-xx-----------------|
A|----------------3333-xx-555555-----------------3333-xx-555555-|
E|--------------------------------------------------------------|

"I wanted to tell you..."
9.
G|-------------------------------------------------------------------|
D|--------222--------222-------------------222-----222---------------|
A|-----------------------333333-555555-----------------333333-555555-|
E|-000000-----000000-------------------000-----000-------------------|

Outro
10.
G|----|
D|----|
A|----|
E|-0~-|

Bridge
11.
G|----------------------------------|
D|----------------------------------|
A|----------------------------------|
E|--3~------3~------3~------3~------|

Verse
"I wanted to tell you..."
12.
G|--------------------------------------------------How-do-I------|
D|--------------------------------------------------explain-------|
A|--2~------2~------0~------0~---------------------everything?----|
E|----------------------------------3~------3~------333333-333333-|

Chorus
"Promise me you will be there..."
13.
G|-----------------------------------------------------------|
D|-----------------------------------------------------------| Play for
A|-222222-000000----------------222222-000000----------------| alot of times
E|---------------333333-3333-xx---------------333333-3333-xx-|

14.
G|--------------------------------------------------------------------------|
D|--------------------------------------------------------------------------| Play for
A|-22222x----00000x---------------------22222x----00000x--------------------| alot of
E|---------------------3333333-3333333----------------------3333333-3333333-| times

"Ill wait for you..."
15.
G|-----------------------------------------------------------------|
D|-----------------------------------------------------------------| Play for alot
A|-2222222-0000000-----------------2222222-0000000-----------------| of times
E|-----------------3333333-3333333-----------------3333333-3333333-|

Finish with:
16.
G|-----|
D|-----|
A|-----|
E|-3~--|

Lyrics:

The ending's the same,
past mistakes that you made,
come back to haunt you, you.

I made a mistake, I wish I could take,
back everything that I did.
I wanted to tell you, I really did.
But how do I explain this?

Promise me you will be there
Until the red light will change.
I would wait forever.
Promise me you will stay here
Until the darkness will fade,
I'd wait for you, you.

A mistake, wish I could take,
back everything that I did.
I wanted to tell you, I really did.
But how do I explain?

I wanted to tell you, what really happened,
but how do I explain this? How do I explain everything?

I'm the same and I'm all on my own, away.
Wait for you.
I'm the same and I'm all on my own, by myself.
Wait for you.
I'd wait for you... for you
I'd wait for you.

+++++++++++++++++++++++++++++++++
| RaiLeff                       |
| Underground__Dora@Hotmail.Com |
+++++++++++++++++++++++++++++++++

            
            
Suggest correction
Creating personal tab
Creating personal tab
You can edit any tab online and save it as your Personal.

You can edit, replace or remove any tab part or add personal notes – all changes will be seen only by you.

Personal tabs can be accessed anytime from any device, even offline.
Learn more »
Give kudos to tab author, rate the tab!
1 2 3 4 5
comments
print report bad tab
guest
You may want to rate the tab now too:
select rating
Wanna post a correction for this tab? Suggest correction