Oops, an error
Loading. Please wait.

Replace You Tab

version 1
version 1

Acoustic

Whole song

Interactive

14,139 views 6 this week
no commentswrite comment
1 2 3 4 5
please rate
add to favorites
launch autoscroll
font size
0
reset
how to read this tab
guitar tuner
Autoscroll
slow
fast
+/-
esc
set tempo
stop
Help us to improve Ultimate-Guitar.com Take our survey!
×
Author
Difficulty
novice
-------------------------------------------------------------------------------
                             Replace You(Acoustic) - Silverstein
-------------------------------------------------------------------------------
Tabbed by:Matt N

D = Down strum
U = Up strum


Tuning:Standard

Intro :

e|---------------------------------------------------------------------------|
B|---------------------------------8--6--4--------8--6--4--------------------|
G|-----0-2----------0-2------------------------------------------------------|
D|---------3-----------3-------5--------------5------------------------------|
A|--1------------1------------6-6------------6-6-----------------------------|
E|-3-3----------3-3----------------------------------------------------------|


   DUDUUDUUDUDUDU            DUDUUDUUDUDUDU DUDUUDUUDU  DUD UDU
e|-33333333333333------------66666666666666-6666666666--133-111--------------|
B|-33333333333333------------66666666666666-6666666666--133-111--------------|
G|-33333333333333--X2--------88888888888888-8888888888--333-111--------------|
D|-55555555555555------------88888888888888-8888888888--333-333--------------|
A|-55555555555555------------66666666666666-6666666666--111-333--------------|
E|-33333333333333------------xxxxxxxxxxxxxx-xxxxxxxxxx-----111---------------|

Verse :

   DDDDDDDD DDDDDDD DDDDDDD DDDDDDD
e|-33333333-6666666-1111111-1111111------------------------------------------|
B|-33333333-6666666-1111111-1111111------------------------------------------|
G|-33333333-8888888-3333333-1111111------------------------------------------|
D|-55555555-8888888-3333333-3333333----X4------------------------------------|
A|-55555555-6666666-1111111-3333333------------------------------------------|
E|-33333333-----------------1111111------------------------------------------|

Pre Chorus :

    D   DDDDDDDD    D  DDDDDDD
e|--3---33333333----6--6666666-----------------------------------------------|
B|--3---33333333----6--6666666-----------------------------------------------|
G|--5---55555555----8--8888888-----------------------------------------------|
D|--5---55555555----8--8888888-----------------------------------------------|
A|--3---33333333----6--6666666-----------------------------------------------|
E|---------------------------------------------------------------------------|

Chorus:

   DDUDUD  UUDUDU  DDUDUDDDUDUD   DDUDUD UUDUDU DDUDUD DUDUDU
e|-333333--555555--111111111111---333333-555555-111111-111111----------------|
B|-333333--555555--111111111111---333333-555555-111111-111111----------------|
G|-555555--777777--333333333333---555555-777777-333333-111111----------------|
D|-555555--777777--333333333333---555555-777777-333333-333333----------------|
A|-333333--555555--111111111111---333333-555555-111111-333333----------------|
E|-----------------------------------------------------111111----------------|


Thats pritty much the whole song!
Leave a comment and let me know if anything is wrong.



************************************

| /   slide up
| \   slide down
| h   hammer-on
| p   pull-off
| ~   vibrato
| +   harmonic
| x   Mute note
| b   Bend
| pb  Pre-bend
| br  Bend release
| pbr Pre-bend release
| brb Bend release bend

************************************
Suggest correction
What's this?
You can suggest a correction to this tab. Community and Mods will review your correction and vote to approve or reject it.
comments
We did not receive enough feedback on this tab! Please rate:
print report bad tab
1 2 3 4 5
guest
You may want to rate the tab now too:
select rating
Please do not post tabs as comments. Select "correction" instead!