Oops, an error
Loading. Please wait.

Replace You tab

version 5
version 5

Whole song

Interactive

3,024 views 3 this week
no commentswrite comment
1 2 3 4 5
x 3
add to favorites
×
Save as Personal and add changes to this tab that will be seen only by you. Learn more ›
×
You can save this tab as Personal to edit and correct it or add notes. All changes will be seen only by you. Learn more »
launch autoscroll
font size
0
reset
how to read this tab
guitar tuner
edit
Autoscroll
slow
fast
+/-
esc
set tempo
stop
Tabbed by: Joshua Garcia (joshuag523@aol.com)

Tabs for the song: Replace You by Silverstein
Please rate and let me know if you have any corrections. Thank you.


**NOTE - This was taken from my full album tab, which can be found here: 
http://tabs.ultimate-guitar.com/s/silverstein/rescue_album_tab.htm **


Tuning: Half-Step Down (D# G# C# F# A# D#)



Intro
Guitar 1:
D#||-----4--6---------------4--6-------------|
A#||----4------7~----------4------7~----4~---|
F#||---4------------------4------------------|
C#||--6------------------6-------------------|
G#||-----------------------------------------|
D#||-----------------------------------------|


D#||---------------------------------------------------|
A#||-----9--7---------------9--------------------------|
F#||----9------9~----------9---9--9/11--9--8--8h9p8----|
C#||---9------------------9-------------------------9--|
G#||--7------------------7-----------------------------|
D#||---------------------------------------------------|


D#||-----4--6---------------4--6--6h7--6--4--------|
A#||----4------7~----------4-----------------7--7--|
F#||---4------------------4------------------------|
C#||--6------------------6-------------------------|
G#||-----------------------------------------------|
D#||-----------------------------------------------|


D#||---------------------------------------------------|
A#||-----9--7---------------9--------------------------|
F#||----9------9~----------9---9--9/11--9--8--8h9p8----|
C#||---9------------------9-------------------------9--|
G#||--7------------------7-----------------------------|
D#||---------------------------------------------------|


Guitar 2:
D#||-----------------------------------------|
A#||-----------------------------------------|
F#||-----------------------------------------|
C#||------------------------------------9~---|
G#||--666----------------666------------6~---|
D#||--444----------------444-----------------|


D#||----------------------------------------------|
A#||----------------------------------------------|
F#||----------------------------------------------|
C#||--999----------------999----------------------|
G#||--777----------------777------99---9---3------|
D#||------------------------------77---6---2--22--|
                                              ..

D#||------------------------------------------------------------------------|
A#||------------------------------------------------------------------------|
F#||-----------------------------------999999999999999999999999-------------|
C#||--6666666666666666666666666666-999-999999999999999999999999-------------|
G#||--6666666666666666666666666666-666-777777777777777777777777-99---9---4--|
D#||--4444444444444444444444444444------------------------------77---6---2--|



Verse
Guitar 1/2:
D#||---------------------------------------------------------------------|
A#||---------------------------------------------------------------------|
F#||---------------------------------------------------------------------|
C#||-----------------------------------4-4-4-4-4-4-4-4-------------------|
G#||--6-6-6-6-6-6-6-6---2-2-2-2-2-2-22-2-2-2-2-2-2-2-2---4-4-4-4-4-4-44--|
D#||--4-4-4-4-4-4-4-4---0-0-0-0-0-0-00-------------------2-2-2-2-2-2-22--|
      . . . . . . . .   . . . . . . .. . . . . . . . .   . . . . . . ..


D#||--------------------------------------------------------------------|
A#||--------------------------------------------------------------------|
F#||--------------------------------------------------------------------|
C#||-----------------------------------4-4-4-4-4-4-4-4------------------|
G#||--6-6-6-6-6-6-6-6---2-2-2-2-2-2-22-2-2-2-2-2-2-2-2---4-4-4-4---4----|
D#||--4-4-4-4-4-4-4-4---0-0-0-0-0-0-00-------------------2-2-2-2-0-2-0--|
      . . . . . . . .   . . . . . . .. . . . . . . . .   . . . . . . .



Guitar 1:
D#||--------------------|-------------------|--------------------|-----------------|
A#||--------------------|-------------------|--------------------|-----------------|
F#||--------8--\--------|---4---4/6---------|--------8--\--------|---/8---6--------|
C#||---/6----------2~---|--------------4~---|---/6----------2~---|------------8~---|
G#||--------------------|-------------------|--------------------|-----------------|
D#||--------------------|-------------------|--------------------|-----------------|



Guitar 2:
D#||---------------------------------------------------------------------|
A#||---------------------------------------------------------------------|
F#||---------------------------------------------------------------------|
C#||-----------------------------------4-4-4-4-4-4-4-4-------------------|
G#||--6-6-6-6-6-6-6-6---2-2-2-2-2-2-22-2-2-2-2-2-2-2-2---4-4-4-4-4-4-44--|
D#||--4-4-4-4-4-4-4-4---0-0-0-0-0-0-00-------------------2-2-2-2-2-2-22--|
      . . . . . . . .   . . . . . . .. . . . . . . . .   . . . . . . ..


D#||--------------------------------------------------------------------|
A#||--------------------------------------------------------------------|
F#||--------------------------------------------------------------------|
C#||-----------------------------------4-4-4-4-4-4-4-4------------------|
G#||--6-6-6-6-6-6-6-6---2-2-2-2-2-2-22-2-2-2-2-2-2-2-2---4-4-4-4---4----|
D#||--4-4-4-4-4-4-4-4---0-0-0-0-0-0-00-------------------2-2-2-2-0-2-0--|
      . . . . . . . .   . . . . . . .. . . . . . . . .   . . . . . . .



Pre-Chorus
Guitar 1/2:
D#||---------------------------------------------------------------------|
A#||---------------------------------------------------------------------|
F#||-----6--------------------6-6-6-6----9--------------9-9-9-9-9-9-9-9--|
C#||--66-6--6-6-6-6-6-6-6-6-6-6-6-6-6-99-9--9-9-9-9-9-9-9-9-9-9-9-9-9-9--|
G#||--44-4--4-4-4-4-4-4-4-4-4-4-4-4-4-77-7--7-7-7-7-7-7-7-7-7-7-7-7-7-7--|
D#||---------------------------------------------------------------------|
      ..    . . . . . .               ..    . . . . . .




Chorus
Guitar 1:
D#||------------------------------------------------------------|
A#||------------------------------------------------------------|
F#||--11--11--111111-13--1313---13131313--9--9--9999--99--9999--|
C#||--x---x---x-x-x--x---x-x----x-x-x-x---x--x--xxxx--xx--xxxx--|
G#||--9---9---9-9-9--11--1111---11111111--7--7--7777--77--7777--|
D#||------------------------------------------------------------|


D#||------------------------------------------------------------|
A#||------------------------------------------------------------|
F#||--11--11--111111-13--1313---13131313--9--9--9999------------|
C#||--x---x---x-x-x--x---x-x----x-x-x-x---x--x--xxxx------------|
G#||--9---9---9-9-9--11--1111---11111111--7--7--7777--99999999--|
D#||--------------------------------------------------77776666--|


D#||-----------------------------------------------------------------------|
A#||-----------------------------------------------------------------------|
F#||--15--15--15-13-15-16--1616---16161616--13-13-131313--11-1111--9--999--|
C#||--x---x---x--x--x--x---x-x----x-x-x-x---x--x--x-x-x---x--xx----x--xxx--|
G#||--13--13--13-11-13-14--1414---14141414--11-11-111111--9--99----7--777--|
D#||-----------------------------------------------------------------------|


D#||-----------------------------------------------------------------------|
A#||----------------------------------------17--17-1616---17-16---14---11--|
F#||--15--15--15-13-15-16--1616---16161616--x---x--x-x----x--x----x----x---|
C#||--x---x---x--x--x--x---x-x----x-x-x-x---14--14-1313---14-13---11---8---|
G#||--13--13--13-11-13-14--1414---14141414---------------------------------|
D#||-----------------------------------------------------------------------|


Guitar 2:
D#||--------------------------------------------------|
A#||--------------------------------------------------|
F#||---------------------------9--9--9999--99--9999---|
C#||--4--4--444-6--66---6666---9--9--9999--99--9999---|
G#||--4--4--444-6--66---6666---7--7--7777--77--7777---|
D#||--2--2--222-4--44---4444--------------------------|


D#||--------------------------------------------------|
A#||--------------------------------------------------|
F#||---------------------------9--9--9999-------------|
C#||--4--4--444-6--66---6666---9--9--9999-------------|
G#||--4--4--444-6--66---6666---7--7--7777--99999999---|
D#||--2--2--222-4--44---4444---------------77776666---|


D#||--------------------------------------------------|
A#||--------------------------------------------------|
F#||---------------------------9--9--9999--99--9999---|
C#||--4--4--444-6--66---6666---9--9--9999--99--9999---|
G#||--4--4--444-6--66---6666---7--7--7777--77--7777---|
D#||--2--2--222-4--44---4444--------------------------|


D#||---------------------------------------------------|
A#||---------------------------------------------------|
F#||---------------------------9--9--9999--------------|
C#||--4--4--444-6--66---6666---9--9--9999--------------|
G#||--4--4--444-6--66---6666---7--7--7777--99---9---4--|
D#||--2--2--222-4--44---4444---------------77---6---2--|



Verse
Guitar 1/2:
D#||---------------------------------------------------------------------|
A#||---------------------------------------------------------------------|
F#||---------------------------------------------------------------------|
C#||-----------------------------------4-4-4-4-4-4-4-4-------------------|
G#||--6-6-6-6-6-6-6-6---2-2-2-2-2-2-22-2-2-2-2-2-2-2-2---4-4-4-4-4-4-44--|
D#||--4-4-4-4-4-4-4-4---0-0-0-0-0-0-00-------------------2-2-2-2-2-2-22--|
      . . . . . . . .   . . . . . . .. . . . . . . . .   . . . . . . ..


D#||--------------------------------------------------------------------|
A#||--------------------------------------------------------------------|
F#||--------------------------------------------------------------------|
C#||-----------------------------------4-4-4-4-4-4-4-4------------------|
G#||--6-6-6-6-6-6-6-6---2-2-2-2-2-2-22-2-2-2-2-2-2-2-2---4-4-4-4---4----|
D#||--4-4-4-4-4-4-4-4---0-0-0-0-0-0-00-------------------2-2-2-2-0-2-0--|
      . . . . . . . .   . . . . . . .. . . . . . . . .   . . . . . . .



Guitar 1:
D#||-------------------11----------------------14----11----11----11----14-11---|
A#||-12----12----12-------12-------12----12-------12----12----12----12---------|
F#||----13----13----13----------11----11----11---------------------------------|
C#||---------------------------------------------------------------------------|
G#||---------------------------------------------------------------------------|
D#||---------------------------------------------------------------------------|


D#||------------------------|
A#||--11-11-11-12-11----11--|
F#||-----------------13-----|
C#||------------------------|
G#||------------------------|
D#||------------------------|


D#||-------------------11----------------------14----11----11----11----14-11---|
A#||-12----12----12-------12-------12----12-------12----12----12----12---------|
F#||----13----13----13----------11----11----11---------------------------------|
C#||---------------------------------------------------------------------------|
G#||---------------------------------------------------------------------------|
D#||---------------------------------------------------------------------------|


D#||-----------------------------|
A#||--11-11-11-12-11----11--12~--|
F#||-----------------13-----13~--|
C#||-----------------------------|
G#||-----------------------------|
D#||-----------------------------|


Guitar 2:
D#||---------------------------------------------------------------------|
A#||---------------------------------------------------------------------|
F#||---------------------------------------------------------------------|
C#||-----------------------------------4-4-4-4-4-4-4-4-------------------|
G#||--6-6-6-6-6-6-6-6---2-2-2-2-2-2-22-2-2-2-2-2-2-2-2---4-4-4-4-4-4-44--|
D#||--4-4-4-4-4-4-4-4---0-0-0-0-0-0-00-------------------2-2-2-2-2-2-22--|
      . . . . . . . .   . . . . . . .. . . . . . . . .   . . . . . . ..


D#||--------------------------------------------------------------------|
A#||--------------------------------------------------------------------|
F#||--------------------------------------------------------------------|
C#||-----------------------------------4-4-4-4-4-4-4-4------------------|
G#||--6-6-6-6-6-6-6-6---2-2-2-2-2-2-22-2-2-2-2-2-2-2-2---4-4-4-4---4----|
D#||--4-4-4-4-4-4-4-4---0-0-0-0-0-0-00-------------------2-2-2-2-0-2-0--|
      . . . . . . . .   . . . . . . .. . . . . . . . .   . . . . . . .



Pre-Chorus
Guitar 1/2:
D#||---------------------------------------------------------------------|
A#||---------------------------------------------------------------------|
F#||-----6--------------------6-6-6-6----9--------------9-9-9-9-9-9-9-9--|
C#||--66-6--6-6-6-6-6-6-6-6-6-6-6-6-6-99-9--9-9-9-9-9-9-9-9-9-9-9-9-9-9--|
G#||--44-4--4-4-4-4-4-4-4-4-4-4-4-4-4-77-7--7-7-7-7-7-7-7-7-7-7-7-7-7-7--|
D#||---------------------------------------------------------------------|
      ..    . . . . . .               ..    . . . . . .




Chorus
Guitar 1:
D#||------------------------------------------------------------|
A#||------------------------------------------------------------|
F#||--11--11--111111-13--1313---13131313--9--9--9999--99--9999--|
C#||--x---x---x-x-x--x---x-x----x-x-x-x---x--x--xxxx--xx--xxxx--|
G#||--9---9---9-9-9--11--1111---11111111--7--7--7777--77--7777--|
D#||------------------------------------------------------------|


D#||------------------------------------------------------------|
A#||------------------------------------------------------------|
F#||--11--11--111111-13--1313---13131313--9--9--9999------------|
C#||--x---x---x-x-x--x---x-x----x-x-x-x---x--x--xxxx------------|
G#||--9---9---9-9-9--11--1111---11111111--7--7--7777--99999999--|
D#||--------------------------------------------------77776666--|


D#||-----------------------------------------------------------------------|
A#||-----------------------------------------------------------------------|
F#||--15--15--15-13-15-16--1616---16161616--13-13-131313--11-1111--9--999--|
C#||--x---x---x--x--x--x---x-x----x-x-x-x---x--x--x-x-x---x--xx----x--xxx--|
G#||--13--13--13-11-13-14--1414---14141414--11-11-111111--9--99----7--777--|
D#||-----------------------------------------------------------------------|


D#||-------------------------------------------------------------|
A#||----------------------------------------17--17-161616--12~---|
F#||--15--15--15-13-15-16--1616---16161616--x---x--x-x-x---x-----|
C#||--x---x---x--x--x--x---x-x----x-x-x-x---14--14-131313--9-~---|
G#||--13--13--13-11-13-14--1414---14141414-----------------------|
D#||-------------------------------------------------------------|


Guitar 2:
D#||--------------------------------------------------|
A#||--------------------------------------------------|
F#||---------------------------9--9--9999--99--9999---|
C#||--4--4--444-6--66---6666---9--9--9999--99--9999---|
G#||--4--4--444-6--66---6666---7--7--7777--77--7777---|
D#||--2--2--222-4--44---4444--------------------------|


D#||--------------------------------------------------|
A#||--------------------------------------------------|
F#||---------------------------9--9--9999-------------|
C#||--4--4--444-6--66---6666---9--9--9999-------------|
G#||--4--4--444-6--66---6666---7--7--7777--99999999---|
D#||--2--2--222-4--44---4444---------------77776666---|


D#||--------------------------------------------------|
A#||--------------------------------------------------|
F#||---------------------------9--9--9999--99--9999---|
C#||--4--4--444-6--66---6666---9--9--9999--99--9999---|
G#||--4--4--444-6--66---6666---7--7--7777--77--7777---|
D#||--2--2--222-4--44---4444--------------------------|


D#||--------------------------------------------|
A#||--------------------------------------------|
F#||---------------------------9--9--------9~---|
C#||--4--4--444-6--66---6666---9--9--xxx---9~---|
G#||--4--4--444-6--66---6666---7--7--xxx---7~---|
D#||--2--2--222-4--44---4444---------xxx--------|



Bridge
Guitar 1:
D#||-----4--6---------------4--6-------|
A#||----4------7~----------4------7~---|
F#||---4------------------4------------|
C#||--6------------------6-------------|
G#||-----------------------------------|
D#||-----------------------------------|


D#||---------------------------------------------------|
A#||-----9--7---------------9--------------------------|
F#||----9------9~----------9---9--9/11--9--8--8h9p8----|
C#||---9------------------9-------------------------9--|
G#||--7------------------7-----------------------------|
D#||---------------------------------------------------|


D#||-----4--6---------------4--6--6h7--6--4--------|
A#||----4------7~----------4-----------------7--7--|
F#||---4------------------4------------------------|
C#||--6------------------6-------------------------|
G#||-----------------------------------------------|
D#||-----------------------------------------------|


D#||---------------------------------------------------------------------|
A#||-----9--7------------------------------------------------------------|
F#||----9------9~--------9-9-9-9--11-11-11-11--13-13-13-13--11-11-11-11--|
C#||---9-----------------x-x-x-x--x--x--x--x---x--x--x--x---x--x--x--x---|
G#||--7------------------7-7-7-7--9--9--9--9---11-11-11-11--9--9--9--9---|
D#||---------------------------------------------------------------------|


Guitar 2:
D#||-------------------------------------------------------------------------|
A#||-------------------------------------------------------------------------|
F#||-9999999999999999999999999999--------------------------------------------|
C#||-9999999999999999999999999999-x-x-x-x-6666666666666666666666666666-9999--|
G#||-7777777777777777777777777777-x-x-x-x-6666666666666666666666666666-9999--|
D#||------------------------------x-x-x-x-4444444444444444444444444444-7777--|


D#||------------------------------------|
A#||------------------------------------|
F#||-9999999999999999-------9999999999--|
C#||-9999999999999999-9999999999999999--|
G#||-7777777777777777-7777777777777777--|
D#||------------------------------------|
                      ............





Guitar 2:
D#||--------------------------------------------------|
A#||--------------------------------------------------|
F#||---------------------------9--9--9999--99--9999---|
C#||--4--4--444-6--66---6666---9--9--9999--99--9999---|
G#||--4--4--444-6--66---6666---7--7--7777--77--7777---|
D#||--2--2--222-4--44---4444--------------------------|


D#||-----------------------------|
A#||-----------------------------|
F#||-----------------------------|
C#||--4--4--444-6--66-x-x-x-x-x--|
G#||--4--4--444-6--66-x-x-x-x-x--|
D#||--2--2--222-4--44-x-x-x-x-x--|



Chorus
Guitar 1:
D#||------------------------|
A#||------------------------|
F#||--9--9--9999------------|
C#||--x--x--xxxx------------|
G#||--7--7--7777--99999999--|
D#||--------------77776666--|


D#||-----------------------------------------------------------------------|
A#||-----------------------------------------------------------------------|
F#||--15--15--15-13-15-16--1616---16161616--13-13-131313--11-1111--9--999--|
C#||--x---x---x--x--x--x---x-x----x-x-x-x---x--x--x-x-x---x--xx----x--xxx--|
G#||--13--13--13-11-13-14--1414---14141414--11-11-111111--9--99----7--777--|
D#||-----------------------------------------------------------------------|


D#||-------------------------------------------------------------------------|
A#||----------------------------------------171717-161616--------------------|
F#||--15--15--15-13-15-16--1616---16161616--x-x-x--x-x-x--18181818-16161616--|
C#||--x---x---x--x--x--x---x-x----x-x-x-x---141414-131313-x-x-x-x--x-x-x-x---|
G#||--13--13--13-11-13-14--1414---14141414----------------16161616-14141414--|
D#||-------------------------------------------------------------------------|


D#||------------------------------------------------------------|
A#||------------------------------------------------------------|
F#||--11--11--111111-13--1313---13131313--9--9--9999--99--9999--|
C#||--x---x---x-x-x--x---x-x----x-x-x-x---x--x--xxxx--xx--xxxx--|
G#||--9---9---9-9-9--11--1111---11111111--7--7--7777--77--7777--|
D#||------------------------------------------------------------|


D#||--------------------------------------------------------------------|
A#||--------------------------------------------------------------------|
F#||--11--11--111111-13--1313---13131313--9999-11111-13131313-16161616--|
C#||--x---x---x-x-x--x---x-x----x-x-x-x---xxxx-xxxx--x-x-x-x--x-x-x-x---|
G#||--9---9---9-9-9--11--1111---11111111--7777-9999--11111111-14141414--|
D#||--------------------------------------------------------------------|


Guitar 2:
D#||------------------------------|
A#||------------------------------|
F#||--9--9--9999------------------|
C#||--9--9--9999--------pick------|
G#||--7--7--7777--9999-----slide--|
D#||--------------7777------------|


D#||--------------------------------------------------|
A#||--------------------------------------------------|
F#||---------------------------9--9--9999--99--9999---|
C#||--4--4--444-6--66---6666---9--9--9999--99--9999---| x3
G#||--4--4--444-6--66---6666---7--7--7777--77--7777---|
D#||--2--2--222-4--44---4444--------------------------|


D#||--------------------------------------------------|
A#||--------------------------------------------------|
F#||---------------------------9--9--9999-------------|
C#||--4--4--444-6--66---6666---9--9--9999-------------|
G#||--4--4--444-6--66---6666---7--7--7777--99999999---|
D#||--2--2--222-4--44---4444---------------77776666---|



Chorus / Outro
Guitar 1:
D#||-----------------------------------------------------------------------|
A#||-----------------------------------------------------------------------|
F#||--15--15--15-13-15-16--1616---16161616--13-13-131313--11-1111--9--999--|
C#||--x---x---x--x--x--x---x-x----x-x-x-x---x--x--x-x-x---x--xx----x--xxx--|
G#||--13--13--13-11-13-14--1414---14141414--11-11-111111--9--99----7--777--|
D#||-----------------------------------------------------------------------|


D#||-------------------------------------------------------------------------|
A#||------------------------------------17171717-16161616--------------------|
F#||--1515151515151515-1616161616161616-x-x-x-x--x-x-x-x--18181818-16161616--|
C#||--x-x-x-x-x-x-x-x--x-x-x-x-x-x-x-x--14141414-13131313-x-x-x-x--x-x-x-x---|
G#||--1313131313131313-1414141414141414-------------------16161616-14141414--|
D#||-------------------------------------------------------------------------|


D#||-----------------------------|
A#||-----------------------------|
F#||--15~--------16~--------13~--|
C#||--x----------x----------x----|
G#||--13~--------14~--------11~--|
D#||-----------------------------|


Guitar 2:
D#||--------------------------------------------------|
A#||--------------------------------------------------|
F#||---------------------------9--9--9999--99--9999---|
C#||--4--4--444-6--66---6666---9--9--9999--99--9999---|
G#||--4--4--444-6--66---6666---7--7--7777--77--7777---|
D#||--2--2--222-4--44---4444--------------------------|


D#||--------------------------------------|
A#||--------------------------------------|
F#||--------------------9999999999999999--|
C#||--44444444-66666666-9999999999999999--|
G#||--44444444-66666666-7777777777777777--|
D#||--22222222-44444444-------------------|


D#||---------------------------|
A#||---------------------------|
F#||----------------------9~---|
C#||--4~--------6~--------9~---|
G#||--4~--------6~--------7~---|
D#||--2~--------4~-------------|




Tablature Legend
----------------
 h   hammer-on
 p   pull-off
 b   bend
 pb  pre-bend
 r   release bend
 ~   hold / vibrato
 .   palm mute
 /   slide up
 \   slide down
 *   pinch harmonic
 '   natural harmonic
 x   mute note
 T   tap

            
            
Suggest correction
Creating personal tab
Creating personal tab
You can edit any tab online and save it as your Personal.

You can edit, replace or remove any tab part or add personal notes – all changes will be seen only by you.

Personal tabs can be accessed anytime from any device, even offline.
Learn more »
Give kudos to tab author, rate the tab!
1 2 3 4 5
comments
print report bad tab
guest
You may want to rate the tab now too:
select rating
Wanna post a correction for this tab? Suggest correction