Oops, an error
Loading. Please wait.

Retrograde tab

version 1
version 1

Whole song

Interactive

817 views 42 this week
1 commentread comment
1 2 3 4 5
2 more votes to show rating
add to favorites
×
Save as Personal and add changes to this tab that will be seen only by you. Learn more ›
×
You can save this tab as Personal to edit and correct it or add notes. All changes will be seen only by you. Learn more »
launch autoscroll
font size
0
reset
how to read this tab
guitar tuner
edit
Autoscroll
slow
fast
+/-
esc
set tempo
stop
Tabbed by: Joshua Garcia (joshuag523@aol.com)

Tabs for the song: Retrograde by Silverstein
Please rate and let me know if you have any corrections. Thank you.


Tuning: Drop B (B F# B E G# C#)


[Intro]
Guitar 1/2:
C#||------------------------------------------------|----------------------------------------------|
G#||------------------------------------------------|----------------------------------------------|
E ||------------------------------------------------|----------------------------------------------|
B ||------------------------------------------------|----------------------------------------------|
F#||---------------------------------------------4--|----------------------------------------------|
B ||--/\---8--7--0-8--7--0------0-8-7-5-0--8--7-----|--8--7--0-8--7--0------x-x---x-x---x-x---x-3--|


C#||-------------------------------------------|---------------------------------------|
G#||-------------------------------------------|---------------------------------------|
E ||-------------------------------------------|-------------------7~------------------|
B ||-------------------------------------------|-------------------7~------------------|
F#||----------------------------------------4--|-------------------5~------\\pick-\\---|
B ||--8--7--0-8--7--0------0-8-7-5-0--8--7-----|--8--7--0-8--7--0-----------\\slide\\--|



[Verse]
Guitar 1/2:
C#||------------------------------------------------------------|
G#||------------------------------------------------------------|
E ||------------------------------------------------------------|
B ||------------------------------------------------------------|
F#||--5-------------5-----------------5-----------5-------------|
B ||-----0-0---0-0-----0-0---0-0--------0---0-0------0-0---0-0--|


C#||--------------------------------------------------------------|
G#||--------------------------------------------------------------|
E ||--------------------------------------------------------------|
B ||--7-------------7-----------------7-----------7---------------|
F#||--4-------------4-----------------4-----------4---------------|
B ||-----0-0---0-0-----0-0---0-0--------0---0-0------x-x-x-x-x-x--|


C#||-----------------------------------|
G#||-----------------------------------|
E ||-----------------------------------|
B ||-----------------------------------| [x2]
F#||-----------------------------------|
B ||--8-8-8-8-8-8-7-7-5-5-5-5-5-5-7-7--|



[Pre-Chorus]
Guitar 1/2:
C#||----------------------------------------------------------------|
G#||----------------------------------------------------------------|
E ||----------------------------------------------------------------|
B ||----------------------------------------------------------------|
F#||--5-------------5-----------------5-----------------------------|
B ||-----0-0---0-0-----0-0---0-0--------0---0-0---0---'5\'\'\'\'\'--|



[Chorus]
Guitar 1:
C#||---------------------------------------------------------------------------------------------------|
G#||--15-15-15-15-15-15-15-15-13-13-13-13-------------------------------------------------13-13-13-13--|
E ||--------------------------------------15-15-12-15-14-14-14-14-14-14-14-14-12-12-12-12--------------|
B ||---------------------------------------------------------------------------------------------------|
F#||---------------------------------------------------------------------------------------------------|
B ||---------------------------------------------------------------------------------------------------|


C#||--------------------------------------------------12-12-12-12-12-12-12-12-12h13-13-13-13-13-13-13--|
G#||---------------------------------------------------------------------------------------------------|
E ||--14-14-14-14-14-14-14-14-12-12-12-12-12-12-12-12--------------------------------------------------|
B ||---------------------------------------------------------------------------------------------------|
F#||---------------------------------------------------------------------------------------------------|
B ||---------------------------------------------------------------------------------------------------|


C#||--------------------------------------------------------------------------12-12-12-12--------------|
G#||--15-15-15-15-15-15-15-15-13-13-13-13-------------------------------------------------13-13-13-13--|
E ||--------------------------------------15-15-12-15-14-14-14-14-14-14-14-14--------------------------|
B ||---------------------------------------------------------------------------------------------------|
F#||---------------------------------------------------------------------------------------------------|
B ||---------------------------------------------------------------------------------------------------|


C#||--13-13-13-13-13-13-13-13-17-17-17-17-17-17-17-17-24-24-24-24-24-24-24-24-24b25-25-25-25-25-25-25--|
G#||---------------------------------------------------------------------------------------------------|
E ||---------------------------------------------------------------------------------------------------|
B ||---------------------------------------------------------------------------------------------------|
F#||---------------------------------------------------------------------------------------------------|
B ||---------------------------------------------------------------------------------------------------|


Guitar 2:
C#||---------------------------------------------------------------|
G#||---------------------------------------------------------------|
E ||--------------------------------------7-7-7-7-7-7-7-7-7-7-7-7--|
B ||--8-8-8-8-8-8-8-8-8-8-8-8-10-10-10-10-7-7-7-7-7-7-7-7-7-7-7-7--|
F#||--8-8-8-8-8-8-8-8-8-8-8-8-10-10-10-10-5-5-5-5-5-5-5-5-5-5-5-5--|
B ||--8-8-8-8-8-8-8-8-8-8-8-8-10-10-10-10--------------------------|


C#||---------------------------------------------------------------|
G#||---------------------------------------------------------------|
E ||--------------10-10-10-10-10-10-10-10-12-12-12-12-12-12-12-12--|
B ||--10-10-10-10-10-10-10-10-10-10-10-10-12-12-12-12-12-12-12-12--|
F#||--7--7--7--7--8--8--8--8--8--8--8--8--10-10-10-10-10-10-10-10--|
B ||---------------------------------------------------------------|


C#||-----------------------------------|
G#||-----------------------------------|
E ||-----------------------------------|
B ||------------------3-3-3-3-2-2-2-2--|
F#||------------------5-5-5-5-4-4-4-4--|
B ||--0-0-0-0-0-0-0-0------------------|
      . . . . . . .


C#||---------------------------------------------------------------|
G#||---------------------------------------------------------------|
E ||--------------------------------------7-7-7-7-7-7-7-7-7-7-7-7--|
B ||--8-8-8-8-8-8-8-8-8-8-8-8-10-10-10-10-7-7-7-7-7-7-7-7-7-7-7-7--|
F#||--8-8-8-8-8-8-8-8-8-8-8-8-10-10-10-10-5-5-5-5-5-5-5-5-5-5-5-5--|
B ||--8-8-8-8-8-8-8-8-8-8-8-8-10-10-10-10--------------------------|


C#||---------------------------------------------------------------|
G#||---------------------------------------------------------------|
E ||--------------10-10-10-10-10-10-10-10-12-12-12-12-12-12-12-12--|
B ||--10-10-10-10-10-10-10-10-10-10-10-10-12-12-12-12-12-12-12-12--|
F#||--7--7--7--7--8--8--8--8--8--8--8--8--10-10-10-10-10-10-10-10--|
B ||---------------------------------------------------------------|


C#||---------------------------------------|
G#||---------------------------------------|
E ||----------7-7-7-7----------------------|
B ||--0-0-0-0-7-7-7-7-0-0-0-0--------------|
F#||--0-0-0-0-5-5-5-5-0-0-0-0--\\pick-\\---|
B ||--0-0-0-0---------0-0-0-0---\\slide\\--|
      . . . .         . . . .



[Verse]
Guitar 1/2:
C#||------------------------------------------------------------|
G#||------------------------------------------------------------|
E ||------------------------------------------------------------|
B ||------------------------------------------------------------|
F#||--5-------------5-----------------5-----------5-------------|
B ||-----0-0---0-0-----0-0---0-0--------0---0-0------0-0---0-0--|


C#||--------------------------------------------------------------|
G#||--------------------------------------------------------------|
E ||--------------------------------------------------------------|
B ||--7-------------7-----------------7-----------7---------------|
F#||--4-------------4-----------------4-----------4---------------|
B ||-----0-0---0-0-----0-0---0-0--------0---0-0------x-x-x-x-x-x--|


C#||-----------------------------------|
G#||-----------------------------------|
E ||-----------------------------------|
B ||-----------------------------------| [x2]
F#||-----------------------------------|
B ||--8-8-8-8-8-8-7-7-5-5-5-5-5-5-7-7--|



[Pre-Chorus]
Guitar 1/2:
C#||----------------------------------------------------------------|
G#||----------------------------------------------------------------|
E ||----------------------------------------------------------------|
B ||----------------------------------------------------------------|
F#||--5-------------5-----------------5-----------------------------|
B ||-----0-0---0-0-----0-0---0-0--------0---0-0---0---'5\'\'\'\'\'--|



[Chorus]
Guitar 1:
C#||---------------------------------------------------------------------------------------------------|
G#||--15-15-15-15-15-15-15-15-13-13-13-13-------------------------------------------------13-13-13-13--|
E ||--------------------------------------15-15-12-15-14-14-14-14-14-14-14-14-12-12-12-12--------------|
B ||---------------------------------------------------------------------------------------------------|
F#||---------------------------------------------------------------------------------------------------|
B ||---------------------------------------------------------------------------------------------------|


C#||--------------------------------------------------12-12-12-12-12-12-12-12-12h13-13-13-13-13-13-13--|
G#||---------------------------------------------------------------------------------------------------|
E ||--14-14-14-14-14-14-14-14-12-12-12-12-12-12-12-12--------------------------------------------------|
B ||---------------------------------------------------------------------------------------------------|
F#||---------------------------------------------------------------------------------------------------|
B ||---------------------------------------------------------------------------------------------------|


C#||--------------------------------------------------------------------------12-12-12-12--------------|
G#||--15-15-15-15-15-15-15-15-13-13-13-13-------------------------------------------------13-13-13-13--|
E ||--------------------------------------15-15-12-15-14-14-14-14-14-14-14-14--------------------------|
B ||---------------------------------------------------------------------------------------------------|
F#||---------------------------------------------------------------------------------------------------|
B ||---------------------------------------------------------------------------------------------------|


C#||--13-13-13-13-13-13-13-13-17-17-17-17-17-17-17-17-24-24-24-24-24-24-24-24-24b25-25-25-25-25-25-25--|
G#||---------------------------------------------------------------------------------------------------|
E ||---------------------------------------------------------------------------------------------------|
B ||---------------------------------------------------------------------------------------------------|
F#||---------------------------------------------------------------------------------------------------|
B ||---------------------------------------------------------------------------------------------------|


Guitar 2:
C#||---------------------------------------------------------------|
G#||---------------------------------------------------------------|
E ||--------------------------------------7-7-7-7-7-7-7-7-7-7-7-7--|
B ||--8-8-8-8-8-8-8-8-8-8-8-8-10-10-10-10-7-7-7-7-7-7-7-7-7-7-7-7--|
F#||--8-8-8-8-8-8-8-8-8-8-8-8-10-10-10-10-5-5-5-5-5-5-5-5-5-5-5-5--|
B ||--8-8-8-8-8-8-8-8-8-8-8-8-10-10-10-10--------------------------|


C#||---------------------------------------------------------------|
G#||---------------------------------------------------------------|
E ||--------------10-10-10-10-10-10-10-10-12-12-12-12-12-12-12-12--|
B ||--10-10-10-10-10-10-10-10-10-10-10-10-12-12-12-12-12-12-12-12--|
F#||--7--7--7--7--8--8--8--8--8--8--8--8--10-10-10-10-10-10-10-10--|
B ||---------------------------------------------------------------|


C#||-----------------------------------|
G#||-----------------------------------|
E ||-----------------------------------|
B ||------------------3-3-3-3-2-2-2-2--|
F#||------------------5-5-5-5-4-4-4-4--|
B ||--0-0-0-0-0-0-0-0------------------|
      . . . . . . .


C#||---------------------------------------------------------------|
G#||---------------------------------------------------------------|
E ||--------------------------------------7-7-7-7-7-7-7-7-7-7-7-7--|
B ||--8-8-8-8-8-8-8-8-8-8-8-8-10-10-10-10-7-7-7-7-7-7-7-7-7-7-7-7--|
F#||--8-8-8-8-8-8-8-8-8-8-8-8-10-10-10-10-5-5-5-5-5-5-5-5-5-5-5-5--|
B ||--8-8-8-8-8-8-8-8-8-8-8-8-10-10-10-10--------------------------|


C#||---------------------------------------------------------------|
G#||---------------------------------------------------------------|
E ||--------------10-10-10-10-10-10-10-10-12-12-12-12-12-12-12-12--|
B ||--10-10-10-10-10-10-10-10-10-10-10-10-12-12-12-12-12-12-12-12--|
F#||--7--7--7--7--8--8--8--8--8--8--8--8--10-10-10-10-10-10-10-10--|
B ||---------------------------------------------------------------|


C#||-----------------------------------|
G#||-----------------------------------|
E ||----------7-7-7-7---------7-7-7-7--|
B ||--0-0-0-0-7-7-7-7-0-0-0-0-7-7-7-7--|
F#||--0-0-0-0-5-5-5-5-0-0-0-0-5-5-5-5--|
B ||--0-0-0-0---------0-0-0-0----------|
      . . . .         . . . .



[Bridge]
Guitar 1/2:
C#||-------------------------------------------|----------------------------------------------|
G#||-------------------------------------------|----------------------------------------------|
E ||-------------------------------------------|----------------------------------------------|
B ||-------------------------------------------|----------------------------------------------| x2
F#||----------------------------------------4--|----------------------------------------------|
B ||--8--7--0-8--7--0------0-8-7-5-0--8--7-----|--8--7--0-8--7--0------x-x---x-x---x-x---x-3--|



[Breakdown]
Guitar 1/2:
C#||-------------------------------------------|----------------------------------------------|
G#||-------------------------------------------|----------------------------------------------|
E ||-------------------------------------------|----------------------------------------------|
B ||-------------------------------------------|----------------------------------------------|
F#||----------------------------------------4--|----------------------------------------------|
B ||--8--7--0-8--7--0------0-8-7-5-0--8--7-----|--8--7--0-8--7--0------x-x---x-x---x-x---x-3--|


C#||-------------------------------------------|----------------------------------------------|
G#||-------------------------------------------|----------------------------------------------|
E ||-------------------------------------------|----------------------------------------------|
B ||-------------------------------------------|----------------------------------------------|
F#||----------------------------------------4--|----------------------------------------------|
B ||--8--7--0-8--7--0------0-8-7-5-0--8--7-----|--8--7--0-8--7--0-----------------------------|


C#||-------------------------------------------|----------------------------------------------|
G#||-------------------------------------------|-----------------------------------6----------|
E ||-------------------------------------------|----------------------------------------------|
B ||-------------------------------------------|-------------------------------------------5--|
F#||----------5--------------------------------|--5-------4--------------------------5--------|
B ||--8--7--0----0--0--------------------------|-----0--0----0--0----------------------7h8----|


C#||-------------------------------------------|----------------------------------------------|
G#||-------------------------------------------|----------------------------------------------|
E ||-------------------------------------------|----------------------------------------------|
B ||-------------------------------------------|----------------------------------------------|
F#||----------5--------------------------------|--5-------4-----------------------------------|
B ||--8--7--0----0--0--------------------------|-----0--0----0--0-----------------------------|


Guitar 1:
C#||-------------------|
G#||-------------------|
E ||-------------------|
B ||-------------------|
F#||-------------------|
B ||--0-0-0-0-0-0-0-0--|


Guitar 2:
C#||--------------|
G#||--------------|
E ||--------------|
B ||--------------|
F#||--\\pick-\\---|
B ||---\\slide\\--|



[Chorus / Outro]
Guitar 1:
C#||---------------------------------------------------------------------------------------------------|
G#||--15-15-15-15-15-15-15-15-13-13-13-13-------------------------------------------------13-13-13-13--|
E ||--------------------------------------15-15-12-15-14-14-14-14-14-14-14-14-12-12-12-12--------------|
B ||---------------------------------------------------------------------------------------------------|
F#||---------------------------------------------------------------------------------------------------|
B ||---------------------------------------------------------------------------------------------------|


C#||--------------------------------------------------12-12-12-12-12-12-12-12-12h13-13-13-13-13-13-13--|
G#||---------------------------------------------------------------------------------------------------|
E ||--14-14-14-14-14-14-14-14-12-12-12-12-12-12-12-12--------------------------------------------------|
B ||---------------------------------------------------------------------------------------------------|
F#||---------------------------------------------------------------------------------------------------|
B ||---------------------------------------------------------------------------------------------------|


C#||--------------------------------------------------------------------------12-12-12-12--------------|
G#||--15-15-15-15-15-15-15-15-13-13-13-13-------------------------------------------------13-13-13-13--|
E ||--------------------------------------15-15-12-15-14-14-14-14-14-14-14-14--------------------------|
B ||---------------------------------------------------------------------------------------------------|
F#||---------------------------------------------------------------------------------------------------|
B ||---------------------------------------------------------------------------------------------------|


C#||--13-13-13-13-13-13-13-13-17-17-17-17-17-17-17-17--|
G#||---------------------------------------------------|
E ||---------------------------------------------------|
B ||---------------------------------------------------|
F#||---------------------------------------------------|
B ||---------------------------------------------------|


Guitar 2:
C#||---------------------------------------------------------------|
G#||---------------------------------------------------------------|
E ||--------------------------------------7-7-7-7-7-7-7-7-7-7-7-7--|
B ||--8-8-8-8-8-8-8-8-8-8-8-8-10-10-10-10-7-7-7-7-7-7-7-7-7-7-7-7--|
F#||--8-8-8-8-8-8-8-8-8-8-8-8-10-10-10-10-5-5-5-5-5-5-5-5-5-5-5-5--|
B ||--8-8-8-8-8-8-8-8-8-8-8-8-10-10-10-10--------------------------|


C#||---------------------------------------------------------------|
G#||---------------------------------------------------------------|
E ||--------------10-10-10-10-10-10-10-10-12-12-12-12-12-12-12-12--|
B ||--10-10-10-10-10-10-10-10-10-10-10-10-12-12-12-12-12-12-12-12--|
F#||--7--7--7--7--8--8--8--8--8--8--8--8--10-10-10-10-10-10-10-10--|
B ||---------------------------------------------------------------|


C#||-----------------------------------|
G#||-----------------------------------|
E ||-----------------------------------|
B ||------------------3-3-3-3-2-2-2-2--|
F#||------------------5-5-5-5-4-4-4-4--|
B ||--0-0-0-0-0-0-0-0------------------|
      . . . . . . .


C#||---------------------------------------------------------------|
G#||---------------------------------------------------------------|
E ||--------------------------------------7-7-7-7-7-7-7-7-7-7-7-7--|
B ||--8-8-8-8-8-8-8-8-8-8-8-8-10-10-10-10-7-7-7-7-7-7-7-7-7-7-7-7--|
F#||--8-8-8-8-8-8-8-8-8-8-8-8-10-10-10-10-5-5-5-5-5-5-5-5-5-5-5-5--|
B ||--8-8-8-8-8-8-8-8-8-8-8-8-10-10-10-10--------------------------|


C#||---------------------------------------------------------------|
G#||---------------------------------------------------------------|
E ||--------------10-10-10-10-10-10-10-10-12-12-12-12-12-12-12-12--|
B ||--10-10-10-10-10-10-10-10-10-10-10-10-12-12-12-12-12-12-12-12--|
F#||--7--7--7--7--8--8--8--8--8--8--8--8--10-10-10-10-10-10-10-10--|
B ||---------------------------------------------------------------|


Guitar 1/2:
C#||-------------------------------------------------------------|
G#||-------------------------------------------------------------|
E ||----------7-7-7-7---------7-7-7-7---------7-7-7-7---------7--|
B ||--0-0-0-0-7-7-7-7-0-0-0-0-7-7-7-7-0-0-0-0-7-7-7-7-0-0-0-0-7--|
F#||--0-0-0-0-5-5-5-5-0-0-0-0-5-5-5-5-0-0-0-0-5-5-5-5-0-0-0-0-5--|
B ||--0-0-0-0---------0-0-0-0---------0-0-0-0---------0-0-0-0----|
      . . . .         . . . .         . . . .         . . . .





*****************************
-Tablature Legend-

 h   hammer-on
 p   pull-off
 b   bend
 pb  pre-bend
 r   release bend
 ~   hold / vibrato
 .   palm mute
 /   slide up
 \   slide down
 *   pinch harmonic
 '   natural harmonic
 x   mute note
 T   tap

*****************************
Suggest correction
Creating personal tab
Creating personal tab
You can edit any tab online and save it as your Personal.

You can edit, replace or remove any tab part or add personal notes – all changes will be seen only by you.

Personal tabs can be accessed anytime from any device, even offline.
Learn more »
Give kudos to tab author, rate the tab!
1 2 3 4 5
comments
print report bad tab
1 comment total.
0 reply
mypandarawrs 10 Jul 15, 2017 07:57 PM

perfect! keep up the good work!

guest
You may want to rate the tab now too:
select rating
Wanna post a correction for this tab? Suggest correction