Oops, an error
Loading. Please wait.

Sacrifice tab

version 1
version 1

Whole song

Interactive

13,098 views 6 this week
2 commentsread comments
1 2 3 4 5
x 4
add to favorites
×
Save as Personal and add changes to this tab that will be seen only by you. Learn more ›
×
You can save this tab as Personal to edit and correct it or add notes. All changes will be seen only by you. Learn more »
launch autoscroll
font size
0
reset
how to read this tab
guitar tuner
edit
Autoscroll
slow
fast
+/-
esc
set tempo
stop
Tabbed by: Joshua Garcia (joshuag523@aol.com)

Tabs for the song: Sacrifice by Silverstein
Please rate and let me know if you have any corrections. Thank you.

Kinda improvised on the Interlude. Best I could do. This part was actually 
just thrown in while recoding, so it's dubbed guitars. As far as I can tell, 
they don't play it live. Everything else is perfect.


**For my tab of the whole album, go here:
http://tabs.ultimate-guitar.com/s/silverstein/rescue_album_tab.htm **


Tuning: Drop C# (C# G# C# F# A# D#)


Intro
Guitar 1:
D#||---------------------------------------------------------|
A#||---------------------------------------------------------|
F#||-----7----------------------------7----------------------|
C#||-----x----------------------------x--------------7-------|
G#||-000-5-0-0------7---8p7-------000-5-0-0------7-----10-8--|
C#||-000---0-0-7h10---------10----000---0-0-7h10-------------|
     ...   . .                    ...   . .

D#||-----------------------------------------------------|
A#||-----------------------------------------------------|
F#||-----7-----------------------------------------------|
C#||-----x----------------------------10-----5555-7777---|
G#||-000-5-0-0------7---8p7-------888----8---5555-7777---|
C#||-000---0-0-7h10---------10----888--------5555-7777---|
     ...   . .                    ...

D#||---------------------------------------------------------|
A#||---------------------------------------------------------|
F#||-----7----------------------------7----------------------|
C#||-----x----------------------------x--------------7-------|
G#||-000-5-0-0------7---8p7-------000-5-0-0------7-----10-8--|
C#||-000---0-0-7h10---------10----000---0-0-7h10-------------|
     ...   . .                    ...   . .

D#||-----------------------------------------------|
A#||-----------------------------------------------|
F#||-----7-----------------------------------------|
C#||-----x----------------------8888888877777777---|
G#||-000-5-0-0------7---8p7-----8888888877777777---|
C#||-000---0-0-7h10---------10--8888888877777777---|
     ...   . .


Guitar 2:
D#||---------------------|-------------------------|
A#||---------------------|-------------------------|
F#||---------------------|-------------------------|
C#||--0000---0---0---x3--|------10-----5555-7777---|
G#||--0000---0---0-------|--888----8---5555-7777---|
C#||--0000---0---0-------|--888--------5555-7777---|
      ....   .   .          ...

D#||---------------------|---------------------------------------------------|
A#||---------------------|---------------------------------------------------|
F#||---------------------|--10-10-10-10-10-10-10-10-12-12-12-12-12-12-12-12--|
C#||--0000---0---0---x3--|--x--x--x--x--x--x--x--x--x--x--x--x--x--x--x--x---|
G#||--0000---0---0-------|--8--8--8--8--8--8--8--8--10-10-10-10-10-10-10-10--|
C#||--0000---0---0-------|---------------------------------------------------|
      ....   .   .


Verse
Guitar 1:
D#||-----------------------|-----------------------|
A#||-----------------------|-----------------------|
F#||---------10---9----10--|---------10---9----10--|
C#||--0000---x----x----x---|--8888---x----x----x---|
G#||--0000---8----7----8---|--8888---8----7----8---|
C#||--0000-----------------|--8888-----------------|


D#||---------------------------|------------------|
A#||---------------------------|------------------|
F#||-------------10---9----10--|------------------| x2
C#||--10101010---x----x----x---|--11111111---11~--|
G#||--10101010---8----7----8---|--11111111---11~--|
C#||--10101010-----------------|--11111111---11~--|
                                 (^ 11's)

Guitar 2:
D#||-----------------------|-----------------------|
A#||-----------------------|-----------------------|
F#||-----------------------|---------14---12---14--|
C#||-----------------------|--8888---x----x----x---|
G#||-----------------------|--8888---12---10---12--|
C#||-----------------------|--8888-----------------|


D#||---------------------------|----------------------------|
A#||---------------------------|----------------------------|
F#||-------------10---9----10--|-------------14~--12-10-10--|
C#||--10101010---x----x----x---|--11111111---x----x--x--x---|
G#||--10101010---8----7----8---|--11111111---12~--10-8--8---|
C#||--10101010-----------------|--11111111------------------|

D#||-----------------------|-----------------------|
A#||-----------------------|-----------------------|
F#||-----------------------|---------14---12---14--|
C#||-----------------------|--8888---x----x----x---|
G#||-----------------------|--8888---12---10---12--|
C#||-----------------------|--8888-----------------|


D#||---------------------------|------------------|
A#||---------------------------|------------------|
F#||-------------10---9----10--|-------------14~--|
C#||--10101010---x----x----x---|--11111111---x----|
G#||--10101010---8----7----8---|--11111111---12~--|
C#||--10101010-----------------|--11111111--------|


Chorus
Guitar 1:
D#||------------------------------------------------------|
A#||------------------------------------------------------|
F#||------------------------------------------------------|
C#||-12-1212-1212-12-1212-1212-11-1111-1111-11-1111-1111--|
G#||-12-1212-1212-12-1212-1212-11-1111-1111-11-1111-1111--|
C#||-12-1212-1212-12-1212-1212-11-1111-1111-11-1111-1111--|


D#||-----------------------------------------------|
A#||-----------------------------------------------|
F#||-----------------------------------------------|
C#||--10-1010-1010-10-1010-1010-8-88-888-7-77-777--|
G#||--10-1010-1010-10-1010-1010-8-88-888-7-77-777--|
C#||--10-1010-1010-10-1010-1010-8-88-888-7-77-777--|


D#||------------------------------------------------------|
A#||------------------------------------------------------|
F#||------------------------------------------------------|
C#||-12-1212-1212-12-1212-1212-11-1111-1111-11-1111-1111--|
G#||-12-1212-1212-12-1212-1212-11-1111-1111-11-1111-1111--|
C#||-12-1212-1212-12-1212-1212-11-1111-1111-11-1111-1111--|


D#||--------------------------------------|
A#||--------------------------------------|
F#||--------------------------------------|
C#||--10-1010-1010-10-1010-1010--8----10--|
G#||--10-1010-1010-10-1010-1010--8----10--|
C#||--10-1010-1010-10-1010-1010--8----10--|


Guitar 2:
D#||------------------------------------------------------|
A#||------------------------------------------------------|
F#||-14-1414-1414-14-1414-1414-14-1414-1414-14-1414-1414--|
C#||-x--x-x--x-x--x--x-x--x-x--x--x-x--x-x--x--x-x--x-x---|
G#||-12-1212-1212-12-1212-1212-12-1212-1212-12-1212-1212--|
C#||------------------------------------------------------|


D#||--------------------------------------------|
A#||--------------------------------------------|
F#||-12-1212-1212-12-1212-1212-7-77-77-6-66-66--|
C#||-x--x-x--x-x--x--x-x--x-x--x-xx-xx-x-xx-xx--|
G#||-10-1010-1010-10-1010-1010-5-55-55-4-44-44--|
C#||--------------------------------------------|


D#||------------------------------------------------------|
A#||------------------------------------------------------|
F#||-14-1414-1414-14-1414-1414-14-1414-1414-14-1414-1414--|
C#||-x--x-x--x-x--x--x-x--x-x--x--x-x--x-x--x--x-x--x-x---|
G#||-12-1212-1212-12-1212-1212-12-1212-1212-12-1212-1212--|
C#||------------------------------------------------------|


D#||-------------------------------------|
A#||-------------------------------------|
F#||-12-1212-1212-12-1212-1212-----------|
C#||-x--x-x--x-x--x--x-x--x-x---8----10--|
G#||-10-1010-1010-10-1010-1010--8----10--|
C#||----------------------------8----10--|



Pre-Verse
Guitar 1:
D#||---------------------------------------------------------|
A#||---------------------------------------------------------|
F#||-----7----------------------------7----------------------|
C#||-----x----------------------------x--------------7-------|
G#||-000-5-0-0------7---8p7-------000-5-0-0------7-----10-8--|
C#||-000---0-0-7h10---------10----000---0-0-7h10-------------|
     ...   . .                    ...   . .

D#||-----------------------------------------------|
A#||-----------------------------------------------|
F#||-----7-----------------------------------------|
C#||-----x----------------------8888888877777777---|
G#||-000-5-0-0------7---8p7-----8888888877777777---|
C#||-000---0-0-7h10---------10--8888888877777777---|
     ...   . .


Guitar 2:
D#||---------------------|---------------------------------------------------|
A#||---------------------|---------------------------------------------------|
F#||---------------------|--10-10-10-10-10-10-10-10-12-12-12-12-12-12-12-12--|
C#||--0000---0---0---x3--|--x--x--x--x--x--x--x--x--x--x--x--x--x--x--x--x---|
G#||--0000---0---0-------|--8--8--8--8--8--8--8--8--10-10-10-10-10-10-10-10--|
C#||--0000---0---0-------|---------------------------------------------------|
      ....   .   .


Verse
Guitar 1:
D#||-----------------------|-----------------------|
A#||-----------------------|-----------------------|
F#||---------10---9----10--|---------10---9----10--|
C#||--0000---x----x----x---|--8888---x----x----x---|
G#||--0000---8----7----8---|--8888---8----7----8---|
C#||--0000-----------------|--8888-----------------|


D#||---------------------------|------------------|
A#||---------------------------|------------------|
F#||-------------10---9----10--|------------------| x2
C#||--10101010---x----x----x---|--11111111---11~--|
G#||--10101010---8----7----8---|--11111111---11~--|
C#||--10101010-----------------|--11111111---11~--|


Guitar 2:
D#||-----------------------|-----------------------|
A#||-----------------------|-----------------------|
F#||-----------------------|---------14---12---14--|
C#||-----------------------|--8888---x----x----x---|
G#||-----------------------|--8888---12---10---12--|
C#||-----------------------|--8888-----------------|


D#||---------------------------|----------------------------|
A#||---------------------------|----------------------------|
F#||-------------10---9----10--|-------------14~--12-10-10--|
C#||--10101010---x----x----x---|--11111111---x----x--x--x---|
G#||--10101010---8----7----8---|--11111111---12~--10-8--8---|
C#||--10101010-----------------|--11111111------------------|


D#||-----------------------|-----------------------|
A#||-----------------------|-----------------------|
F#||-----------------------|---------14---12---14--|
C#||-----------------------|--8888---x----x----x---|
G#||-----------------------|--8888---12---10---12--|
C#||-----------------------|--8888-----------------|


D#||---------------------------|------------------|
A#||---------------------------|------------------|
F#||-------------10---9----10--|-------------14~--|
C#||--10101010---x----x----x---|--11111111---x----|
G#||--10101010---8----7----8---|--11111111---12~--|
C#||--10101010-----------------|--11111111--------|



Chorus
Guitar 1:
D#||------------------------------------------------------|
A#||------------------------------------------------------|
F#||------------------------------------------------------|
C#||-12-1212-1212-12-1212-1212-11-1111-1111-11-1111-1111--|
G#||-12-1212-1212-12-1212-1212-11-1111-1111-11-1111-1111--|
C#||-12-1212-1212-12-1212-1212-11-1111-1111-11-1111-1111--|


D#||-----------------------------------------------|
A#||-----------------------------------------------|
F#||-----------------------------------------------|
C#||--10-1010-1010-10-1010-1010-8-88-888-7-77-777--|
G#||--10-1010-1010-10-1010-1010-8-88-888-7-77-777--|
C#||--10-1010-1010-10-1010-1010-8-88-888-7-77-777--|


D#||------------------------------------------------------|
A#||------------------------------------------------------|
F#||------------------------------------------------------|
C#||-12-1212-1212-12-1212-1212-11-1111-1111-11-1111-1111--|
G#||-12-1212-1212-12-1212-1212-11-1111-1111-11-1111-1111--|
C#||-12-1212-1212-12-1212-1212-11-1111-1111-11-1111-1111--|


D#||----------------------------------------------------|
A#||----------------------------------------------------|
F#||----------------------------------------------------|
C#||--10-1010-1010-10-1010-1010--8~---10~---0~-----14\--|
G#||--10-1010-1010-10-1010-1010--8~---10~---0~-----14\--|
C#||--10-1010-1010-10-1010-1010--8~---10~---0~-----14\--|


Guitar 2:
D#||------------------------------------------------------|
A#||------------------------------------------------------|
F#||-14-1414-1414-14-1414-1414-14-1414-1414-14-1414-1414--|
C#||-x--x-x--x-x--x--x-x--x-x--x--x-x--x-x--x--x-x--x-x---|
G#||-12-1212-1212-12-1212-1212-12-1212-1212-12-1212-1212--|
C#||------------------------------------------------------|


D#||--------------------------------------------|
A#||--------------------------------------------|
F#||-12-1212-1212-12-1212-1212-7-77-77-6-66-66--|
C#||-x--x-x--x-x--x--x-x--x-x--x-xx-xx-x-xx-xx--|
G#||-10-1010-1010-10-1010-1010-5-55-55-4-44-44--|
C#||--------------------------------------------|


D#||------------------------------------------------------|
A#||------------------------------------------------------|
F#||-14-1414-1414-14-1414-1414-14-1414-1414-14-1414-1414--|
C#||-x--x-x--x-x--x--x-x--x-x--x--x-x--x-x--x--x-x--x-x---|
G#||-12-1212-1212-12-1212-1212-12-1212-1212-12-1212-1212--|
C#||------------------------------------------------------|


D#||---------------------------------------------------|
A#||---------------------------------------------------|
F#||-12-1212-1212-12-1212-1212-------------------------|
C#||-x--x-x--x-x--x--x-x--x-x---8~---10~---0~----------|
G#||-10-1010-1010-10-1010-1010--8~---10~---0~----------|
C#||----------------------------8~---10~---0~-----14\--|



Breakdown
Guitar 1/2:
D#||-------------------------------------|-------------------------------------|
A#||-------------------------------------|-------------------------------------|
F#||-----7--------------7----------------|-----7--------------7----------------|
C#||-----x--------------x----------------|-----x--------------x--------7-------|
G#||-000-5-0-00-----000-5-0-00--------7--|-000-5-0-00-----000-5-0-00-----10-8--|
C#||-000---0-00-----000---0-00---7h10----|-000---0-00-----000---0-00-----------|
     ...   . ..     ...   . ..             ...   . ..     ...   . ..

Guitar 1:
D#||---------------------------------------------------------|
A#||---------------------------------------------------------|
F#||-----7----------------------------7----------------------| x2
C#||-----x----------------------------x--------------7-------|
G#||-000-5-0-0------7---8p7-------000-5-0-0------7-----10-8--|
C#||-000---0-0-7h10---------10----000---0-0-7h10-------------|
     ...   . .                    ...   . .

Guitar 2:
D#||----------------|
A#||----------------|
F#||----------------|
C#||--0000---0---0--| x4
G#||--0000---0---0--|
C#||--0000---0---0--|
      ....   .   .


Bridge
Guitar 1/2:
D#||-----------------------------------------------------------------|
A#||-----------------------------------------------------------------|
F#||-----------------------------------------------------------------| x2
C#||--0~----00~--0-0--3----33~--3-3--5~----55~--5-5--8888-10101010---|
G#||--0~----00~--0-0--3----33~--3-3--5~----55~--5-5--8888-10101010---|
C#||--0~----00~--0-0--3----33~--3-3--5~----55~--5-5--8888-10101010---|



Interlude
Guitar 1:
D#||---------------------------------------------------|
A#||-------------13----------------------13------------|
F#||-------12-14----14-12----------12-14----12-14------|
C#||-12-15----------------15-12-15----------------15---|
G#||---------------------------------------------------|
C#||---------------------------------------------------|


D#||---------------------------|
A#||----------13---------------|
F#||----14-15----15-14-12------|
C#||-12-------------------15---|
G#||---------------------------|
C#||---------------------------|


D#||---------------------------|
A#||---------------------------|
F#||--14----------15-----------| x2
C#||-----15-12-15----15-12-15--|
G#||---------------------------|
C#||---------------------------|


Guitar 2:
D#||---------------------------------------------------|
A#||---------------------------------------------------|
F#||----14-12-14-12-------------14-12-14-12------------|
C#||-12-------------15-14-15-12-------------15-14-15---|
G#||---------------------------------------------------|
C#||---------------------------------------------------|


D#||--------------------------|
A#||-------13-15-13-----------|
F#||----15----------15-14-15--|
C#||-12-----------------------|
G#||--------------------------|
C#||--------------------------|


D#||--13----------12------------|
A#||-----15-13-15----15-13-15---|
F#||----------------------------| x2
C#||----------------------------|
G#||----------------------------|
C#||----------------------------|


Guitar 1/2 (dubbed):
D#||-----------------------------------------------------------------|
A#||-----------------------------------------------------------------|
F#||-----------------------------------------------------------------|
C#||--0~----00~--0-0--3----33~--2-3--5~----55~--5-5--8888-10101010---|
G#||--0~----00~--0-0--3----33~--2-3--5~----55~--5-5--8888-10101010---|
C#||--0~----00~--0-0--3----33~--2-3--5~----55~--5-5--8888-10101010---|
                                . .

D#||-----------------------------------------------------------------|
A#||-----------------------------------------------------------------|
F#||-----------------------------------------------------------------|
C#||--0~----00~--0-0--3----33~--3-3--5~----55~--5-5--8888-10101010---|
G#||--0~----00~--0-0--3----33~--3-3--5~----55~--5-5--8888-10101010---|
C#||--0~----00~--0-0--3----33~--3-3--5~----55~--5-5--8888-10101010---|


Guitar 1:
D#||--------------------------------------|
A#||--------------------------------------|
F#||--------------------------------------|
C#||--8--8--88--8--810--10--1010--10--10--|
G#||--8--8--88--8--810--10--1010--10--10--|
C#||--8--8--88--8--810--10--1010--10--10--|



Chorus
Guitar 1:
D#||------------------------------------------------------|
A#||------------------------------------------------------|
F#||------------------------------------------------------|
C#||-12-1212-1212-12-1212-1212-11-1111-1111-11-1111-1111--|
G#||-12-1212-1212-12-1212-1212-11-1111-1111-11-1111-1111--|
C#||-12-1212-1212-12-1212-1212-11-1111-1111-11-1111-1111--|


D#||-----------------------------------------------|
A#||-----------------------------------------------|
F#||-----------------------------------------------|
C#||--10-1010-1010-10-1010-1010-8-88-888-7-77-777--|
G#||--10-1010-1010-10-1010-1010-8-88-888-7-77-777--|
C#||--10-1010-1010-10-1010-1010-8-88-888-7-77-777--|


D#||------------------------------------------------------|
A#||------------------------------------------------------|
F#||------------------------------------------------------|
C#||-12-1212-1212-12-1212-1212-11-1111-1111-11-1111-1111--|
G#||-12-1212-1212-12-1212-1212-11-1111-1111-11-1111-1111--|
C#||-12-1212-1212-12-1212-1212-11-1111-1111-11-1111-1111--|


D#||---------------------------------------|
A#||---------------------------------------|
F#||---------------------------------------|
C#||--10-1010-1010-10-1010-1010--8~---10~--|
G#||--10-1010-1010-10-1010-1010--8~---10~--|
C#||--10-1010-1010-10-1010-1010--8~---10~--|


Guitar 2:
D#||------------------------------------------------------|
A#||------------------------------------------------------|
F#||-14-1414-1414-14-1414-1414-14-1414-1414-14-1414-1414--|
C#||-x--x-x--x-x--x--x-x--x-x--x--x-x--x-x--x--x-x--x-x---|
G#||-12-1212-1212-12-1212-1212-12-1212-1212-12-1212-1212--|
C#||------------------------------------------------------|


D#||--------------------------------------------|
A#||--------------------------------------------|
F#||-12-1212-1212-12-1212-1212-7-77-77-6-66-66--|
C#||-x--x-x--x-x--x--x-x--x-x--x-xx-xx-x-xx-xx--|
G#||-10-1010-1010-10-1010-1010-5-55-55-4-44-44--|
C#||--------------------------------------------|


D#||------------------------------------------------------|
A#||------------------------------------------------------|
F#||-14-1414-1414-14-1414-1414-14-1414-1414-14-1414-1414--|
C#||-x--x-x--x-x--x--x-x--x-x--x--x-x--x-x--x--x-x--x-x---|
G#||-12-1212-1212-12-1212-1212-12-1212-1212-12-1212-1212--|
C#||------------------------------------------------------|


D#||--------------------------------------|
A#||--------------------------------------|
F#||-12-1212-1212-12-1212-1212------------|
C#||-x--x-x--x-x--x--x-x--x-x---8~---10~--|
G#||-10-1010-1010-10-1010-1010--8~---10~--|
C#||----------------------------8~---10~--|



Outro
Guitar 1:
D#||----------------------------------|
A#||----------------------------------|
F#||-----7----------------------------|
C#||-----x------------------------0---|
G#||-000-5-0-0------7---8p7-------0---|
C#||-000---0-0-7h10---------10----0---|
     ...   . .

Guitar 2:
D#||-----------------|-------|
A#||-----------------|-------|
F#||-----------------|-------|
C#||--0000---0---0---|---0---|
G#||--0000---0---0---|---0---|
C#||--0000---0---0---|---0---|
      ....   .   .





Tablature Legend
----------------
 h   hammer-on
 p   pull-off
 b   bend
 pb  pre-bend
 r   release bend
 ~   hold / vibrato
 .   palm mute
 /   slide up
 \   slide down
 *   pinch harmonic
 '   natural harmonic
 x   mute note
 T   tap

            
            
Suggest correction
Creating personal tab
Creating personal tab
You can edit any tab online and save it as your Personal.

You can edit, replace or remove any tab part or add personal notes – all changes will be seen only by you.

Personal tabs can be accessed anytime from any device, even offline.
Learn more »
comments
print report bad tab
2 comments total.
0 reply
colinbreslin9 19 Nov 30, 2015 03:10 PM

PERFECT TAB!!!!!!!

0 reply
colinbreslin9 19 Nov 30, 2015 03:14 PM

actually other than

D#||---------------------------------------------------------|
A#||---------------------------------------------------------|
F#||-----7----------------------------7----------------------|
C#||-----x----------------------------x--------------7-------|
G#||-000-5-0-0------7---8p7-------000-5-0-0------7-----10-8--|
C#||-000---0-0-7h10---------10----000---0-0-7h10-------------|

HAve it be:
D#||---------------------------------------------------------|
A#||---------------------------------------------------------|
F#||-----7----------------------------7----------------------|
C#||-----x----------------------------x--------------7-------|
G#||-000-5----------7---8p7-------000-5----------7-----10-8--|
C#||-000-------7h10---------10----000-------7h10-------------|

guest
You may want to rate the tab now too:
select rating
Wanna post a correction for this tab? Suggest correction