Oops, an error
Loading. Please wait.

Sacrifice tab

version 2
version 2

Whole song

Interactive

3,703 views 6 this week
no commentswrite comment
1 2 3 4 5
x 3
add to favorites
×
Save as Personal and add changes to this tab that will be seen only by you. Learn more ›
×
You can save this tab as Personal to edit and correct it or add notes. All changes will be seen only by you. Learn more »
launch autoscroll
font size
0
reset
how to read this tab
guitar tuner
edit
Autoscroll
slow
fast
+/-
esc
set tempo
stop
Author
-------------------------------------------------------------------------------
                             Sacrifice - Silverstein
-------------------------------------------------------------------------------
Tabbed by: Theonelink
Email: Jimmy1927537534@btinternet.com

Me playing with this tab - http://www.youtube.com/watch?v=DzBiC-p5ZKs

Pretty sure this is 95-100% accurate

Tuning: Drop C#

INTRO: 

Both Guitars
|-----------------------------------------------------------------|
|-----------------------------------------------------------------|
|---------7------------------------------7------------------------|
|---------x------------------------------x------------------------|
|-0-0-0---5--0-0-------7--8p7----0-0-0---5--0-0-------7--12p10p8--|
|-0-0-0------0-0---7h10------10--0-0-0------0-0---7h10------------|
  . . .      . .                 . . .      . .

|-----------------------------------------------------------------|
|-----------------------------------------------------------------|
|---------7----------------------------10-10----------------------|
|---------x-------------------------------------5-5-5-5--7-7-7-7--|
|-0-0-0---5--0-0-------7--8p7-------------------5-5-5-5--7-7-7-7--|
|-0-0-0------0-0---7h10------10---8-8-8---------5-5-5-5--7-7-7-7--|
  . . .      . .                  . . . 

|-----------------------------------------------------------------|
|-----------------------------------------------------------------|
|---------7------------------------------7------------------------|
|---------x------------------------------x------------------------|
|-0-0-0---5--0-0-------7--8p7----0-0-0---5--0-0-------7--12p10p8--|
|-0-0-0------0-0---7h10------10--0-0-0------0-0---7h10------------|
  . . .      . .                 . . .      . .

|------------------------------------------------------------------|
|------------------------------------------------------------------|
|---------7--------------------------------------------------------|
|---------x----------------------8-8-8-8-8-8-8-8--7-7-7-7-7-7-7-7--|
|-0-0-0---5--0-0-------7--8p7----8-8-8-8-8-8-8-8--7-7-7-7-7-7-7-7--|
|-0-0-0------0-0---7h10------10--8-8-8-8-8-8-8-8--7-7-7-7-7-7-7-7--|
  . . .      . .               

VERSE 1:

Guitar 1
|---------------------------------------------------------------------------|
|---------------------------------------------------------------------------|
|----------10-9-10-----------10-9-10---------------10-9-10------------------|
|-0-0-0-0--x--x--x--7-7-7-7--x--x--x--10-10-10-10--x--x--x--11-11-11-11--11-|
|-0-0-0-0--8--7--8--7-7-7-7--8--7--8--10-10-10-10--8--7--8--11-11-11-11--11-|
|-0-0-0-0-----------7-7-7-7-----------10-10-10-10-----------11-11-11-11--11-|

|---------------------------------------------------------------------------|
|---------------------------------------------------------------------------|
|----------10-9-10-----------10-9-10---------------10-9-10------------------|
|-0-0-0-0--x--x--x--7-7-7-7--x--x--x--10-10-10-10--x--x--x--11-11-11-11--7--|
|-0-0-0-0--8--7--8--7-7-7-7--8--7--8--10-10-10-10--8--7--8--11-11-11-11--7--|
|-0-0-0-0-----------7-7-7-7-----------10-10-10-10-----------11-11-11-11--7--|

|------------------------------------------------------------------|
|------------------------------------------------------------------|
|------------------------------------------------------------------|
|-7-7-7-7-7-7--7-7-7-7-7-7--5-5-5-5-5-5--3-3-3-3-3-3--2-2-2-2-2-2--|
|-5-5-5-5-5-5--4-4-4-4-4-4--3-3-3-3-3-3--1-1-1-1-1-1--0-0-0-0-0-0--|
|------------------------------------------------------------------|

|------------------------------------------------|
|------------------------------------------------|
|------------------------------------------------|
|-7-7-7-7-7-7--7-7-7-7-7-7--5-5-5-5-5-5---3---5--|
|-5-5-5-5-5-5--4-4-4-4-4-4--3-3-3-3-3-3---1---3--|
|------------------------------------------------|

Guitar 2
|---------------------------------------------------------------------------|
|---------------------------------------------------------------------------|
|---------10-9-10---------14-12-14-------------14-12-14-------------14-12-10|
|-0-0-0-0-x--x--x-7-7-7-7--x--x--x-10-10-10-10--x--x--x-11-11-11-11--x--x-x-|
|-0-0-0-0-8--7--8-7-7-7-7-12-10-12-10-10-10-10-12-10-12-11-11-11-11-12-10-8-|
|-0-0-0-0---------7-7-7-7----------10-10-10-10----------11-11-11-11---------|

|------------------------------------------------------------------------|
|------------------------------------------------------------------------|
|---------10-9-10---------14-12-14-------------14-12-14--------------14--|
|-0-0-0-0-x--x--x-7-7-7-7--x--x--x-10-10-10-10--x--x--x-11-11-11-11--x---|
|-0-0-0-0-8--7--8-7-7-7-7-12-10-12-10-10-10-10-12-10-12-11-11-11-11--12--|
|-0-0-0-0---------7-7-7-7----------10-10-10-10----------11-11-11-11------|

|------------------------------------------------------------------------|
|------------------------------------------------------------------------|
|-14-14-14-14-14-14-14-14-14--12-12-12-12-12-12-12--10-10-10-10--9-9-9-9-|
|--x--x--x--x--x--x--x--x--x---x--x--x--x--x--x--x--x--x--x--x---x-x-x-x-|
|-12-12-12-12-12-12-12-12-12--10-10-10-10-10-10-10--8--8--8--8---7-7-7-7-|
|------------------------------------------------------------------------|

|-----------------------------------------------------------|
|-----------------------------------------------------------|
|-14-14-14-14-14-14-14-14-14--12-12-12-12-12-12-12----------|
|--x--x--x--x--x--x--x--x--x---x--x--x--x--x--x--x--8---10--|
|-12-12-12-12-12-12-12-12-12--10-10-10-10-10-10-10--8---10--|
|---------------------------------------------------8---10--|

CHORUS:

Both Guitars
|-----------------------------------------------------------------|
|-----------------------------------------------------------------|
|---------7------------------------------7------------------------|
|---------x------------------------------x------------------------|
|-0-0-0---5--0-0-------7--8p7----0-0-0---5--0-0-------7--12p10p8--|
|-0-0-0------0-0---7h10------10--0-0-0------0-0---7h10------------|
  . . .      . .                 . . .      . .

|------------------------------------------------------------------|
|------------------------------------------------------------------|
|---------7--------------------------------------------------------|
|---------x----------------------8-8-8-8-8-8-8-8--7-7-7-7-7-7-7-7--|
|-0-0-0---5--0-0-------7--8p7----8-8-8-8-8-8-8-8--7-7-7-7-7-7-7-7--|
|-0-0-0------0-0---7h10------10--8-8-8-8-8-8-8-8--7-7-7-7-7-7-7-7--|
  . . .      . .

VERSE 2:

Guitar 1
|---------------------------------------------------------------------------|
|---------------------------------------------------------------------------|
|----------10-9-10-----------10-9-10---------------10-9-10------------------|
|-0-0-0-0--x--x--x--7-7-7-7--x--x--x--10-10-10-10--x--x--x--11-11-11-11--11-|
|-0-0-0-0--8--7--8--7-7-7-7--8--7--8--10-10-10-10--8--7--8--11-11-11-11--11-|
|-0-0-0-0-----------7-7-7-7-----------10-10-10-10-----------11-11-11-11--11-|

|---------------------------------------------------------------------------|
|---------------------------------------------------------------------------|
|----------10-9-10-----------10-9-10---------------10-9-10------------------|
|-0-0-0-0--x--x--x--7-7-7-7--x--x--x--10-10-10-10--x--x--x--11-11-11-11--7--|
|-0-0-0-0--8--7--8--7-7-7-7--8--7--8--10-10-10-10--8--7--8--11-11-11-11--7--|
|-0-0-0-0-----------7-7-7-7-----------10-10-10-10-----------11-11-11-11--7--|

|------------------------------------------------------------------|
|------------------------------------------------------------------|
|------------------------------------------------------------------|
|-7-7-7-7-7-7--7-7-7-7-7-7--5-5-5-5-5-5--3-3-3-3-3-3--2-2-2-2-2-2--|
|-5-5-5-5-5-5--4-4-4-4-4-4--3-3-3-3-3-3--1-1-1-1-1-1--0-0-0-0-0-0--|
|------------------------------------------------------------------|

|----------------------------------------------------------|
|----------------------------------------------------------|
|----------------------------------------------------------|
|-7-7-7-7-7-7--7-7-7-7-7-7--5-5-5-5-5-5---3---5---0---15\--|
|-5-5-5-5-5-5--4-4-4-4-4-4--3-3-3-3-3-3---1---3---0---15\--|
|-------------------------------------------------0---15\--|

Guitar 2
|---------------------------------------------------------------------------|
|---------------------------------------------------------------------------|
|---------10-9-10---------14-12-14-------------14-12-14-------------14-12-10|
|-0-0-0-0-x--x--x-7-7-7-7--x--x--x-10-10-10-10--x--x--x-11-11-11-11--x--x-x-|
|-0-0-0-0-8--7--8-7-7-7-7-12-10-12-10-10-10-10-12-10-12-11-11-11-11-12-10-8-|
|-0-0-0-0---------7-7-7-7----------10-10-10-10----------11-11-11-11---------|

|------------------------------------------------------------------------|
|------------------------------------------------------------------------|
|---------10-9-10---------14-12-14-------------14-12-14--------------14--|
|-0-0-0-0-x--x--x-7-7-7-7--x--x--x-10-10-10-10--x--x--x-11-11-11-11--x---|
|-0-0-0-0-8--7--8-7-7-7-7-12-10-12-10-10-10-10-12-10-12-11-11-11-11--12--|
|-0-0-0-0---------7-7-7-7----------10-10-10-10----------11-11-11-11------|

|------------------------------------------------------------------------|
|------------------------------------------------------------------------|
|-14-14-14-14-14-14-14-14-14--12-12-12-12-12-12-12--10-10-10-10--9-9-9-9-|
|--x--x--x--x--x--x--x--x--x---x--x--x--x--x--x--x--x--x--x--x---x-x-x-x-|
|-12-12-12-12-12-12-12-12-12--10-10-10-10-10-10-10--8--8--8--8---7-7-7-7-|
|------------------------------------------------------------------------|

|---------------------------------------------------------------------|
|---------------------------------------------------------------------|
|-14-14-14-14-14-14-14-14-14--12-12-12-12-12-12-12--------------------|
|--x--x--x--x--x--x--x--x--x---x--x--x--x--x--x--x--8---10---0---15\--|
|-12-12-12-12-12-12-12-12-12--10-10-10-10-10-10-10--8---10---0---15\--|
|---------------------------------------------------8---10---0---15\--|

BREAKDOWN:

Both Guitars
|----------------------------------------------|
|----------------------------------------------|
|---------7-------------------7----------------|
|---------x-------------------x----------------|
|-0-0-0---5--0--0-0---0-0-0---5--0--0-0------7-|
|-0-0-0------0--0-0---0-0-0------0--0-0--7h10--|
  . . .      .  . .   . . .      .  . .      

|------------------------------------------------|
|------------------------------------------------|
|---------7-------------------7------------------|
|---------x-------------------x------------------|
|-0-0-0---5--0--0-0---0-0-0---5--0--0-0--12p10p8-|
|-0-0-0------0--0-0---0-0-0------0--0-0----------|
  . . .      .  . .   . . .      .  . .

|-----------------------------------------------------------------|
|-----------------------------------------------------------------|
|---------7------------------------------7------------------------|
|---------x------------------------------x------------------------|
|-0-0-0---5--0-0-------7--8p7----0-0-0---5--0-0-------7--12p10p8--|
|-0-0-0------0-0---7h10------10--0-0-0------0-0---7h10------------|
  . . .      . .                 . . .      . .

|-----------------------------------------------------------------|
|-----------------------------------------------------------------|
|---------7------------------------------7------------------------|
|---------x------------------------------x------------------------|
|-0-0-0---5--0-0-------7--8p7----0-0-0---5--0-0-------7--12p10p8--|
|-0-0-0------0-0---7h10------10--0-0-0------0-0---7h10------------|
  . . .      . .                 . . .      . .

BRIDGE:

Both guitars 
|-----------------------------------------------|
|-----------------------------------------------|
|-----------------------------------------------|
|-0--0-0--3--3-3--5--5-5--8-8-8-8--10-10-10-10--|
|-0--0-0--3--3-3--5--5-5--8-8-8-8--10-10-10-10--|
|-0--0-0--3--3-3--5--5-5--8-8-8-8--10-10-10-10--|

|-----------------------------------------------|
|-----------------------------------------------|
|-----------------------------------------------|
|-0--0-0--3--3-3--5--5-5--8-8-8-8--10-10-10-10--|
|-0--0-0--3--3-3--5--5-5--8-8-8-8--10-10-10-10--|
|-0--0-0--3--3-3--5--5-5--8-8-8-8--10-10-10-10--|

|---------------------------------------------------|
|---------------------------------------------------|  Another guitar starts
|---------------------------------------------------|  playing a lead riff
|-0--0-0--3--3-3-2-3--5--5-5--8-8-8-8--10-10-10-10--|  here but i don't want
|-0--0-0--3--3-3-2-3--5--5-5--8-8-8-8--10-10-10-10--|  to figure it out
|-0--0-0--3--3-3-2-3--5--5-5--8-8-8-8--10-10-10-10--|  
                 . .

|-----------------------------------------------|
|-----------------------------------------------|
|-----------------------------------------------|
|-0--0-0--3--3-3--5--5-5--8-8-8-8--10-10-10-10--|
|-0--0-0--3--3-3--5--5-5--8-8-8-8--10-10-10-10--|
|-0--0-0--3--3-3--5--5-5--8-8-8-8--10-10-10-10--|

OUTRO/ENDING:

Guitar 1
|-----------------------------------|
|-----------------------------------|
|-----------------------------------| This part is very 
|-3-3-3-3-3-3-3-3--5-5-5-5-5-5-5-5--|       quiet
|-1-1-1-1-1-1-1-1--3-3-3-3-3-3-3-3--|
|-----------------------------------|

|---------------------------------------------------------------------------|
|---------------------------------------------------------------------------|
|---------------------------------------------------------------------------|
|-xxxxxxx--7-7-7-7-7-7--7-7-7-7-7-7--5-5-5-5-5-5--3-3-3-3-3-3--2-2-2-2-2-2--|
|-xxxxxxx--5-5-5-5-5-5--4-4-4-4-4-4--3-3-3-3-3-3--1-1-1-1-1-1--0-0-0-0-0-0--|
|-xxxxxxx-------------------------------------------------------------------|
  
|------------------------------------------------|
|------------------------------------------------|
|------------------------------------------------|
|-7-7-7-7-7-7--7-7-7-7-7-7--5-5-5-5-5-5---3---5--|
|-5-5-5-5-5-5--4-4-4-4-4-4--3-3-3-3-3-3---1---3--|
|------------------------------------------------|

Guitar 2
|---------------------------------------------------------------------------|
|---------------------------------------------------------------------------|
|---------14-14-14-14-14-14-14-14-14--12-12-12-12-12---10-10-10-10--9-9-9-9-|
|-xxxxxxxx-x--x--x--x--x--x--x--x--x---x--x--x--x--x---x--x--x--x---x-x-x-x-|
|-xxxxxxxx12-12-12-12-12-12-12-12-12--10-10-10-10-10---8--8--8--8---7-7-7-7-|
|-xxxxxxxx------------------------------------------------------------------|

|-----------------------------------------------------------|
|-----------------------------------------------------------|
|-14-14-14-14-14-14-14-14-14--12-12-12-12-12-12-12----------|
|--x--x--x--x--x--x--x--x--x---x--x--x--x--x--x--x--8---10--|
|-12-12-12-12-12-12-12-12-12--10-10-10-10-10-10-10--8---10--|
|---------------------------------------------------8---10--|

Both Guitars
|-----------------------------------|
|-----------------------------------|
|---------7-------------------------|
|---------x----------------------0--|
|-0-0-0---5--0-0-------7--8p7----0--|
|-0-0-0------0-0---7h10------10--0--|
  . . .      . .                

************************************

| /   slide up
| \   slide down
| h   hammer-on
| p   pull-off
| ~   vibrato
| +   harmonic
| x   Mute note
| b   Bend
| pb  Pre-bend
| br  Bend release
| pbr Pre-bend release
| brb Bend release bend

************************************
Suggest correction
Creating personal tab
Creating personal tab
You can edit any tab online and save it as your Personal.

You can edit, replace or remove any tab part or add personal notes – all changes will be seen only by you.

Personal tabs can be accessed anytime from any device, even offline.
Learn more »
Give kudos to tab author, rate the tab!
1 2 3 4 5
comments
print report bad tab
guest
You may want to rate the tab now too:
select rating
Wanna post a correction for this tab? Suggest correction