Oops, an error
Loading. Please wait.

Secrets Safe tab

244 views 12 this week
no commentswrite comment
1 2 3 4 5
3 more votes to show rating
add to favorites
×
Save as Personal and add changes to this tab that will be seen only by you. Learn more ›
×
You can save this tab as Personal to edit and correct it or add notes. All changes will be seen only by you. Learn more »
launch autoscroll
font size
0
reset
how to read this tab
guitar tuner
edit
Autoscroll
slow
fast
+/-
esc
set tempo
stop
Tabbed by: Joshua Garcia (joshuag523@aol.com)

Tabs for the song: Secret's Safe by Silverstein
Please rate and let me know if you have any corrections. Thank you.


Tuning: D Tuning (D G C F A D)


[Intro]
Guitar 1:
D||------------------------------------------------|------------------------------------------------|
A||------------------------------------------------|------------------------------------------------|
F||------------------------------------------------|------------------------------------------------|
C||-------12/14------------------12----12----------|-------12/14------------------12----12----------|
G||----10-------14-12-10-12---10----10----10---10--|----10-------14-12-10-12---10----10----10---10--|
D||--0----------------------8----------------8-----|--0----------------------8----------------8-----|


D||------------------------------------------------|------------------------------------------------|
A||------------------------------------------------|------------------------------------------------|
F||------------------------------------------------|------------------------------------9-----------|
C||-------12/14------------------12----12----------|-------12/14------------------12------12----12--|
G||----10-------14-12-10-12---10----10----10---10--|----10-------14-12-10-12---10----10------10-----|
D||--0----------------------8----------------8-----|--0----------------------8----------------------|


D||------------------------------------------------|------------------------------------------------|
A||------------------------------------------------|------------------------------------------------|
F||------------------------------------------------|--------0---0-----------------0---0-------------|
C||-------12/14------------------12----12----------|------------------------------------------------|
G||----10-------14-12-10-12---10----10----10---10--|------9---9---9------9------9---9---9------9----|
D||--0----------------------8----------------8-----|--10-------------10-----10-------------10-------|



[Verse]
Guitar 1/2:
D||------------------------------------------------|------------------------------------------------|
A||------------------------------------------------|------------------------------------------------|
F||------------------------------------------------|------------------------------------9-----------|
C||-------12/14------------------12----12----------|-------12/14------------------12------12----12--|
G||----10-------14-12-10-12---10----10----10---10--|----10-------14-12-10-12---10----10------10-----|
D||--0----------------------8----------------8-----|--0----------------------8----------------------|


D||------------------------------------------------|------------------------------------------------|
A||------------------------------------------------|------------------------------------------------|
F||------------------------------------------------|--------0---0-----------------0----0------------|
C||-------12/14------------------12----12----------|------------------------------------------------|
G||----10-------14-12-10-12---10----10----10---10--|------9---9---9------9-----10---10---10----10---|
D||--0----------------------8----------------8-----|--10-------------10-----12--------------12------|


D||----------------------------|
A||----------------------------|
F||----------------------------|
C||--------9----9----10----12--|
G||-----10---10---10----10-----|
D||--8-------------------------|



[Chorus]
Guitar 1:
D||-------------------------------------------------------------------------------------|
A||-------------------------------------------------------------------------------------|
F||--12----12-12-12----12---14-14----14-14-14-14-12----12-12-12----12---7-7----7-7-7-7--|
C||--x-----x--x--x-----x----x--x-----x--x--x--x--x-----x--x--x-----x----x-x----x-x-x-x--|
G||--10----10-10-10----10---12-12----12-12-12-12-10----10-10-10----10---5-5----5-5-5-5--|
D||-------------------------------------------------------------------------------------|


D||-------------------------------------------------------------------------------------|
A||-------------------------------------------------------------------------------------|
F||--12----12-12-12----12---14-14----14-14-14-14-12----12-12-12----12---7-7----7-7-7-7--|
C||--x-----x--x--x-----x----x--x-----x--x--x--x--x-----x--x--x-----x----x-x----x-x-x-x--|
G||--10----10-10-10----10---12-12----12-12-12-12-10----10-10-10----10---5-5----5-5-5-5--|
D||-------------------------------------------------------------------------------------|


D||---------------------------------------------------|
A||---------------------------------------------------|
F||--12-12-12-12-19-19-19-19-14-14-14-14-19-19-19-19--|
C||--x--x--x--x--x--x--x--x--x--x--x--x--x--x--x--x---|
G||--10-10-10-10-17-17-17-17-12-12-12-12-17-17-17-17--|
D||---------------------------------------------------|


D||---------------------------------------------------|
A||---------------------------------------------------|
F||--16-16-16-16-16-16-16-16-19-19-19-19-19-19-19-19--|
C||--x--x--x--x--x--x--x--x--x--x--x--x--x--x--x--x---|
G||--14-14-14-14-14-14-14-14-17-17-17-17-17-17-17-17--|
D||---------------------------------------------------|


D||--------------------------------------------------|
A||--------------------------------------------------|
F||--12----12-12-12----12---14-14----14-14-14-19-16--|
C||--x-----x--x--x-----x----x--x-----x--x--x--x--x---|
G||--10----10-10-10----10---12-12----12-12-12-17-14--|
D||--------------------------------------------------|


Guitar 2:
D||-----------------------------------------------------------------------------------|
A||-----------------------------------------------------------------------------------|
F||-----------------------------------------------------------------------------------|
C||--12----12-12-12----12----12-12----12-12-12-12-2----2-2-2----2----5-5----5-5-5-5---|
G||--10----10-10-10----10----12-12----12-12-12-12-2----2-2-2----2----5-5----5-5-5-5---|
D||--8-----8--8--8-----8-----10-10----10-10-10-10-0----0-0-0----0----3-3----3-3-3-3---|


D||-----------------------------------------------------------------------------------|
A||-----------------------------------------------------------------------------------|
F||-----------------------------------------------------------------------------------|
C||--12----12-12-12----12----12-12----12-12-12-12-2----2-2-2----2----5-5----5-5-5-5---|
G||--10----10-10-10----10----12-12----12-12-12-12-2----2-2-2----2----5-5----5-5-5-5---|
D||--8-----8--8--8-----8-----10-10----10-10-10-10-0----0-0-0----0----3-3----3-3-3-3---|


D||-----------------------------------------------------------------------------------|
A||-----------------------------------------------------------------------------------|
F||-----------------------------------------------------------------------------------|
C||--12-12-12-12-12-12-12-12-12-12-12-12-12-12-12-12-2-2-2-2-2-2-2-2-5-5-5-5-5-5-5-5--|
G||--10-10-10-10-10-10-10-10-12-12-12-12-12-12-12-12-2-2-2-2-2-2-2-2-5-5-5-5-5-5-5-5--|
D||--8--8--8--8--8--8--8--8--10-10-10-10-10-10-10-10-0-0-0-0-0-0-0-0-3-3-3-3-3-3-3-3--|


D||--------------------------------------------------|
A||--------------------------------------------------|
F||--------------------------------------------------|
C||--12----12-12-12----12----12-12----12-12-12-12-2--|
G||--10----10-10-10----10----12-12----12-12-12-12-2--|
D||--8-----8--8--8-----8-----10-10----10-10-10-10-0--|


Guitar 3:
D||-----------|
A||--8---/15--|
F||-----------|
C||-----------|
G||-----------|
D||-----------|



[Verse]
Guitar 1/2:
D||------------------------------------------------|------------------------------------------------|
A||------------------------------------------------|------------------------------------------------|
F||------------------------------------------------|------------------------------------9-----------|
C||-------12/14------------------12----12----------|-------12/14------------------12------12----12--|
G||----10-------14-12-10-12---10----10----10---10--|----10-------14-12-10-12---10----10------10-----|
D||--0----------------------8----------------8-----|--0----------------------8----------------------|


D||------------------------------------------------|------------------------------------------------|
A||------------------------------------------------|------------------------------------------------|
F||------------------------------------------------|--------0---0-----------------0---0-------------|
C||-------12/14------------------12----12----------|------------------------------------------------|
G||----10-------14-12-10-12---10----10----10---10--|------9---9---9------9------9---9---9------9----|
D||--0----------------------8----------------8-----|--10-------------10-----10-------------10-------|


D||------------------------------------------------|------------------------------------------------|
A||------------------------------------------------|------------------------------------------------|
F||------------------------------------------------|------------------------------------9-----------|
C||-------12/14------------------12----12----------|-------12/14------------------12------12----12--|
G||----10-------14-12-10-12---10----10----10---10--|----10-------14-12-10-12---10----10------10-----|
D||--0----------------------8----------------8-----|--0----------------------8----------------------|


D||------------------------------------------------|------------------------------------------------|
A||------------------------------------------------|------------------------------------------------|
F||------------------------------------------------|--------0---0-----------------0----0------------|
C||-------12/14------------------12----12----------|------------------------------------------------|
G||----10-------14-12-10-12---10----10----10---10--|------9---9---9------9-----10---10---10----10---|
D||--0----------------------8----------------8-----|--10-------------10-----12--------------12------|


D||----------------------------|
A||----------------------------|
F||----------------------------|
C||--------9----9----10----12--|
G||-----10---10---10----10-----|
D||--8-------------------------|



[Chorus]
Guitar 1:
D||-------------------------------------------------------------------------------------|
A||-------------------------------------------------------------------------------------|
F||--12----12-12-12----12---14-14----14-14-14-14-12----12-12-12----12---7-7----7-7-7-7--|
C||--x-----x--x--x-----x----x--x-----x--x--x--x--x-----x--x--x-----x----x-x----x-x-x-x--|
G||--10----10-10-10----10---12-12----12-12-12-12-10----10-10-10----10---5-5----5-5-5-5--|
D||-------------------------------------------------------------------------------------|


D||-------------------------------------------------------------------------------------|
A||-------------------------------------------------------------------------------------|
F||--12----12-12-12----12---14-14----14-14-14-14-12----12-12-12----12---7-7----7-7-7-7--|
C||--x-----x--x--x-----x----x--x-----x--x--x--x--x-----x--x--x-----x----x-x----x-x-x-x--|
G||--10----10-10-10----10---12-12----12-12-12-12-10----10-10-10----10---5-5----5-5-5-5--|
D||-------------------------------------------------------------------------------------|


D||---------------------------------------------------|
A||---------------------------------------------------|
F||--12-12-12-12-19-19-19-19-14-14-14-14-19-19-19-19--|
C||--x--x--x--x--x--x--x--x--x--x--x--x--x--x--x--x---|
G||--10-10-10-10-17-17-17-17-12-12-12-12-17-17-17-17--|
D||---------------------------------------------------|


D||---------------------------------------------------|
A||---------------------------------------------------|
F||--16-16-16-16-16-16-16-16-19-19-19-19-19-19-19-19--|
C||--x--x--x--x--x--x--x--x--x--x--x--x--x--x--x--x---|
G||--14-14-14-14-14-14-14-14-17-17-17-17-17-17-17-17--|
D||---------------------------------------------------|


D||-----------------------------------------------|
A||-----------------------------------------------|
F||--12----12-12-12----12---14-14----14-14-14-19--|
C||--x-----x--x--x-----x----x--x-----x--x--x--x---|
G||--10----10-10-10----10---12-12----12-12-12-17--|
D||-----------------------------------------------|


Guitar 2:
D||-----------------------------------------------------------------------------------|
A||-----------------------------------------------------------------------------------|
F||-----------------------------------------------------------------------------------|
C||--12----12-12-12----12----12-12----12-12-12-12-2----2-2-2----2----5-5----5-5-5-5---|
G||--10----10-10-10----10----12-12----12-12-12-12-2----2-2-2----2----5-5----5-5-5-5---|
D||--8-----8--8--8-----8-----10-10----10-10-10-10-0----0-0-0----0----3-3----3-3-3-3---|


D||-----------------------------------------------------------------------------------|
A||-----------------------------------------------------------------------------------|
F||-----------------------------------------------------------------------------------|
C||--12----12-12-12----12----12-12----12-12-12-12-2----2-2-2----2----5-5----5-5-5-5---|
G||--10----10-10-10----10----12-12----12-12-12-12-2----2-2-2----2----5-5----5-5-5-5---|
D||--8-----8--8--8-----8-----10-10----10-10-10-10-0----0-0-0----0----3-3----3-3-3-3---|


D||-----------------------------------------------------------------------------------|
A||-----------------------------------------------------------------------------------|
F||-----------------------------------------------------------------------------------|
C||--12-12-12-12-12-12-12-12-12-12-12-12-12-12-12-12-2-2-2-2-2-2-2-2-5-5-5-5-5-5-5-5--|
G||--10-10-10-10-10-10-10-10-12-12-12-12-12-12-12-12-2-2-2-2-2-2-2-2-5-5-5-5-5-5-5-5--|
D||--8--8--8--8--8--8--8--8--10-10-10-10-10-10-10-10-0-0-0-0-0-0-0-0-3-3-3-3-3-3-3-3--|


D||------------------------------------------------|
A||------------------------------------------------|
F||------------------------------------------------|
C||--12----12-12-12----12----12-12----12-12-12-12--|
G||--10----10-10-10----10----12-12----12-12-12-12--|
D||--8-----8--8--8-----8-----10-10----10-10-10-10--|


Guitar 1:
D||------------------------------------------------------|
A||------------------------------------------------------|
F||------------------------------------------------------|
C||--2--2--2--2--2--2--2--2--2--2--2--2--2--x-x-x-x-x-x--|
G||--2--2--2--2--2--2--2--2--2--2--2--2--2--x-x-x-x-x-x--|
D||--0--0--0--0--0--0--0--0--0--0--0--0--0--x-x-x-x-x-x--|
     .  .  .  .  .  .  .  .  .  .  .


Guitar 2:
D||------------------------------------------------------|
A||------------------------------------------------------|
F||------------------------------------------------------|
C||--2--2--2--2--2--2--2--2--2--2--2--2--2--x-x-x-x------|
G||--2--2--2--2--2--2--2--2--2--2--2--2--2--x-x-x-x------|
D||--0--0--0--0--0--0--0--0--0--0--0--0--0--x-x-x-x-\\\--|
     .  .  .  .  .  .  .  .  .  .  .



[Bridge]
Guitar 1:
D||-----------------------------------|-----------------------------------|
A||-----------------------------------|-----------------------------------|
F||-----------------------------------|-----------------------------------|
C||--5-5-5-5-5-5-5-5-4-4-4-4-4-4------|--2-2-2-2-2-2-2-2-2-2-2-2-2-2-2-2--|
G||--5-5-5-5-5-5-5-5-5-5-5-5-5-5------|--2-2-2-2-2-2-2-2-2-2-2-2-2-2-2-2--|
D||--3-3-3-3-3-3-3-3-2-2-2-2-2-2-0-2--|--0-0-0-0-0-0-0-0-0-0-0-0-0-0-0-0--|


D||---------------------------------------------------------------------------------------------------|
A||---------------------------------------------------------------------------------------------------|
F||---------------------------------------------------------------------------------------------------|
C||--12-12-12-12-12-12-12-12-12-12-12-12-12-12-12-12-12-12-12-12-12-12-12-12-12-12-12-12-12-12-12-12--|
G||--10-10-10-10-10-10-10-10-10-10-10-10-10-10-10-10-12-12-12-12-12-12-12-12-12-12-12-12-12-12-12-12--|
D||--8--8--8--8--8--8--8--8--7--7--7--7--7--7--7--7--10-10-10-10-10-10-10-10-10-10-10-10-10-10-10-10--|


D||-----------------------------------|-----------------------------------|
A||-----------------------------------|-----------------------------------|
F||-----------------------------------|-----------------------------------|
C||--5-5-5-5-5-5-5-5-4-4-4-4-4-4-4-4--|--2-2-2-2-2-2-2-2-2-2-2-2-2-2-2-2--|
G||--5-5-5-5-5-5-5-5-5-5-5-5-5-5-5-5--|--2-2-2-2-2-2-2-2-2-2-2-2-2-2-2-2--|
D||--3-3-3-3-3-3-3-3-7-7-7-7-7-7-7-7--|--0-0-0-0-0-0-0-0-0-0-0-0-0-0-0-0--|


D||----------------------------------|
A||----------------------------------|
F||----------------------------------|
C||--12------------12------------12--|
G||--10------------10------------12--|
D||--8-------------7-------------10--|


Guitar 2:
D||-----------------------------------|-----------------------------------|
A||-----------------------------------|-----------------------------------|
F||--0-0-0-0-0-0-0-0-0-0-0-0-0-0-0-0--|------0-----0---0-----0-----0---0--|
C||--5-5-5-5-7/9-9-9-4-4-4-4-7/9-9-9--|--2-2---2-2---2---2-2---2-2---2----|
G||-----------------------------------|-----------------------------------|
D||-----------------------------------|-----------------------------------|


D||---------------------------------------------------------------------------|
A||---------------------------------------------------------------------------|
F||--0--0--0--0--0--0--0--0--0-0-0-0-0-0-0-0-0-0-0-0-0-0-0-0-0-0-0-0-0-0-0----|
C||--12-12-12-12-12-12-12-12-9-9-9-9-9-9-9-9-4-4-4-4-4-4-4-4-4-4-4-4-4-4-4/5--|
G||---------------------------------------------------------------------------|
D||---------------------------------------------------------------------------|


D||-----------------------------------|-------------------------------------|
A||-----------------------------------|-------------------------------------|
F||--0-0-0-0-0-0-0-0-0-0-0-0-0-0-0-0--|------0-----0---0-0-0-0-0-0-0-0--0---|
C||--5-5-5-5-7/9-9-9-4-4-4-4-7/9-9-9--|--2-2---2-2---2---2-2-7-7-9-9-12-12--|
G||-----------------------------------|-------------------------------------|
D||-----------------------------------|-------------------------------------|


D||--------------------------------|
A||--------------------------------|
F||--0-------------0------------0--|
C||--12------------9------------5--|
G||--------------------------------|
D||--------------------------------|



[Interlude]
Guitar 1:
D||------------------------------------------------|------------------------------------------------|
A||------------------------------------------------|------------------------------------------------|
F||------------------------------------------------|------------------------------------9-----------|
C||-------12/14------------------12----12----------|-------12/14------------------12------12----12--|
G||----10-------14-12-10-12---10----10----10---10--|----10-------14-12-10-12---10----10------10-----|
D||--0----------------------8----------------8-----|--0----------------------8----------------------|


D||------------------------------------------------|----------------------------|
A||------------------------------------------------|------------------------'7--|
F||------------------------------------------------|--------0---0-----------'7--|
C||-------12/14------------------12----12----------|------------------------'7--|
G||----10-------14-12-10-12---10----10----10---10--|------9---9---9------9------|
D||--0----------------------8----------------8-----|--10-------------10---------|



[Chorus / Outro]
Guitar 1:
D||-------------------------------------------------------------------------------------|
A||-------------------------------------------------------------------------------------|
F||--12----12-12-12----12---14-14----14-14-14-14-12----12-12-12----12---7-7----7-7-7-7--|
C||--x-----x--x--x-----x----x--x-----x--x--x--x--x-----x--x--x-----x----x-x----x-x-x-x--|
G||--10----10-10-10----10---12-12----12-12-12-12-10----10-10-10----10---5-5----5-5-5-5--|
D||-------------------------------------------------------------------------------------|


D||-------------------------------------------------------------------------------------|
A||-------------------------------------------------------------------------------------|
F||--12----12-12-12----12---14-14----14-14-14-14-12----12-12-12----12---7-7----7-7-7-7--|
C||--x-----x--x--x-----x----x--x-----x--x--x--x--x-----x--x--x-----x----x-x----x-x-x-x--|
G||--10----10-10-10----10---12-12----12-12-12-12-10----10-10-10----10---5-5----5-5-5-5--|
D||-------------------------------------------------------------------------------------|


D||---------------------------------------------------|
A||---------------------------------------------------|
F||--12-12-12-12-19-19-19-19-14-14-14-14-19-19-19-19--|
C||--x--x--x--x--x--x--x--x--x--x--x--x--x--x--x--x---|
G||--10-10-10-10-17-17-17-17-12-12-12-12-17-17-17-17--|
D||---------------------------------------------------|


D||---------------------------------------------------|
A||---------------------------------------------------|
F||--16-16-16-16-16-16-16-16-19-19-19-19-19-19-19-19--|
C||--x--x--x--x--x--x--x--x--x--x--x--x--x--x--x--x---|
G||--14-14-14-14-14-14-14-14-17-17-17-17-17-17-17-17--|
D||---------------------------------------------------|


D||-------------------------|
A||-------------------------|
F||--12-----------------11--|
C||--x------------------x---|
G||--10-----------------10--|
D||-------------------------|


Guitar 2:
D||-----------------------------------------------------------------------------------|
A||-----------------------------------------------------------------------------------|
F||-----------------------------------------------------------------------------------|
C||--12----12-12-12----12----12-12----12-12-12-12-2----2-2-2----2----5-5----5-5-5-5---|
G||--10----10-10-10----10----12-12----12-12-12-12-2----2-2-2----2----5-5----5-5-5-5---|
D||--8-----8--8--8-----8-----10-10----10-10-10-10-0----0-0-0----0----3-3----3-3-3-3---|


D||-----------------------------------------------------------------------------------|
A||-----------------------------------------------------------------------------------|
F||-----------------------------------------------------------------------------------|
C||--12----12-12-12----12----12-12----12-12-12-12-2----2-2-2----2----5-5----5-5-5-5---|
G||--10----10-10-10----10----12-12----12-12-12-12-2----2-2-2----2----5-5----5-5-5-5---|
D||--8-----8--8--8-----8-----10-10----10-10-10-10-0----0-0-0----0----3-3----3-3-3-3---|


D||-----------------------------------------------------------------------------------|
A||-----------------------------------------------------------------------------------|
F||-----------------------------------------------------------------------------------|
C||--12-12-12-12-12-12-12-12-12-12-12-12-12-12-12-12-2-2-2-2-2-2-2-2-5-5-5-5-5-5-5-5--|
G||--10-10-10-10-10-10-10-10-12-12-12-12-12-12-12-12-2-2-2-2-2-2-2-2-5-5-5-5-5-5-5-5--|
D||--8--8--8--8--8--8--8--8--10-10-10-10-10-10-10-10-0-0-0-0-0-0-0-0-3-3-3-3-3-3-3-3--|


D||-------------------------|
A||-------------------------|
F||-------------------------|
C||--12-----------------12--|
G||--10-----------------10--|
D||--8------------------10--|





*****************************
-Tablature Legend-

 h   hammer-on
 p   pull-off
 b   bend
 pb  pre-bend
 r   release bend
 ~   hold / vibrato
 .   palm mute
 /   slide up
 \   slide down
 *   pinch harmonic
 '   natural harmonic
 x   mute note
 T   tap

*****************************

            
            
Suggest correction
Creating personal tab
Creating personal tab
You can edit any tab online and save it as your Personal.

You can edit, replace or remove any tab part or add personal notes – all changes will be seen only by you.

Personal tabs can be accessed anytime from any device, even offline.
Learn more »
Give kudos to tab author, rate the tab!
1 2 3 4 5
comments
print report bad tab
guest
You may want to rate the tab now too:
select rating
Wanna post a correction for this tab? Suggest correction