Oops, an error
Loading. Please wait.

Smashed Into Pieces tab

version 5
version 5
2,779 views 1 this week
2 commentsread comments
1 2 3 4 5
2 more votes to show rating
add to favorites
×
Save as Personal and add changes to this tab that will be seen only by you. Learn more ›
×
You can save this tab as Personal to edit and correct it or add notes. All changes will be seen only by you. Learn more »
launch autoscroll
font size
0
reset
how to read this tab
guitar tuner
edit
Autoscroll
slow
fast
+/-
esc
set tempo
stop
Author
Band: Silverstein
Song: Smashed Into Pieces
Album: When Broken Is Easily Fixed

Guitar 2

Intro
e|---------------------------------------------|
B|---------------------------------------------|
G|-----6-7-----7-6/7/6-----6-7-----------------|
D|--4~-x-x--0~-x-x-x-x--4~-x-x--2-22-22222222--|
A|--4~-4-5--0~-5-4/5/4--4~-4-5--2-22-22222222--|
D|--4~------0~----------4~------2-22-22222222--|

Verse
e|-----------------------------------------------|
B|-----------------------------------------------|
G|------------11-9-7-9------------9-7--6/7/6-----|
D|--0-0000-0---x-x-x-x--4-4444-4--x-x--x-x-x-----|
A|--0-0000-0---9-7-5-7--4-4444-4--7-5--4/5/4-----|
D|--0-0000-0------------4-4444-4-----------------|
      ****                ****
                                                    (x2)

e|-----------------------------------------------|
B|-----------------------------------------------|
G|-----------18-16-14-16-------------------------|
D|--0-000-0---x--x--x--x----4-44-444--2-22-22----|
A|--0-000-0--16-14-12-14----4-44-444--2-22-22----|
D|--0-000-0-----------------4-44-444--2-22-22----|
      ***                                 **

Chorus
e|--------------------------------------------------------------------|
B|--------------------------------------------------------------------|
G|------------------7-77-777777777------------------------------------|
D|--4-44-444444444--7-77-777777777-7-77-777777777-6-66-666--2-22-222--|(x2)
A|--4-44-444444444--5-55-555555555-7-77-777777777-6-66-666--2-22-222--|
D|--4-44-444444444-----------------7-77-777777777-6-66-666--2-22-222--|

Then you repeat the Verse (2 times)
and the Chorus (2 times).


Bridge Part I
e|------------------------------------------------|
B|------------------------------------------------|
G|------------------------------7~----------------|
D|--0~--------4~----2~----0~----7~----4~----2~----|
A|--0~--------4~----2~----0~----5~----4~----2~----|
D|--0~--------4~----2~----0~---(0)~---4~----2~----|


Bridge Part II
e|-----------------------------------------------------|
B|-----------------------------------------------------|
G|-----------------------------------------------------|
D|--------7---6h7-(x2)--------7---7h9--------9---9h11--|(x2)
A|--55-5-5--55----------99-9-9--99-----77-7-7--77------|
D|-----------------------------------------------------|
    ** * *  **          ** * *  **     ** * *  **

There is also another way to play "Bridge Part II" and I think the guy switches back and 
between both ways.
Instead of playing the above part you can play this:
e|-----------------------------------------------------|
B|-----------------------------------------------------|
G|-----------------------------------------------------|
D|--------7---6h7-(x2)--------7---6h7--------9---9h11--|(x2)
A|--55-5-5--55----------99-9-9--99-----77-7-7--77------|
D|-----------------------------------------------------|
    ** * *  **          ** * *  **     ** * *  **
There's not much difference except for in the middle part, the hammer on gets changed 
"7h9", to "6h7". I'm not really sure which one he plays, so you can try them both.

Bridge Part III
e|--------------------------------------------------------|
B|--------------------------------------------------------|
G|--------------------------------------------------------|
D|--000000-0-0-0--000000-0-0-0--------4~--------2~--------|(x4)
A|--000000-0-0-0--000000-0-0-0--------4~--------2~--------|
D|--000000-0-0-0--000000-0-0-0--------4~--------2~--------|
    ****** * * *  ****** * * *

This is the only part that I'm not 100% sure about:

Clean Solo
e|------------------------------------------------------------|
B|------------------------------------------------------------|
G|--11-11-11-11--9-9-9-9----9-9----9-9-9-9--6-6-6-7----6/7----|
D|---x--x--x--x--7-7-7-7----7-7----x-x-x-x--4-4-4-4----4-4----|(x2)
A|---9--9--9--9--9-9-9-9----9-9----7-7-7-7--5-5-5-5----5-5----|
D|------------------------------------------------------------|


Outro
e|----------------------------------------|
B|----------------------------------------|
G|----------------------------------------|
D|--444444--2-22-2222--000000--2-22-2222--|
A|--444444--2-22-2222--000000--2-22-2222--|
D|--444444--2-22-2222--000000--2-22-2222--|

e|----------------------------------------|
B|----------------------------------------|
G|----------------------------------------|
D|--444444--2-22-2222--000000--2-22-2222--|
A|--444444--2-22-2222--000000--2-22-2222--|
D|--444444--2-22-2222--000000--2-22-2222--|

e|----------------------------------------|
B|----------------------------------------|
G|----------------------------------------|
D|--444444--2-22-2222--000000--2-22-2222--|
A|--444444--2-22-2222--000000--2-22-2222--|
D|--444444--2-22-2222--000000--2-22-2222--|
    ******
e|----------------------------------------|
B|----------------------------------------|
G|----------------------------------------|
D|--444444--2-22-2222--000000--2-2222--0-2|
A|--444444--2-22-2222--000000--2-2222--0-2|
D|--444444--2-22-2222--000000--2-2222--0-2|

Then you repeat the Verse (2 times)
and the Chorus (2 times)and the song's over.

A Moments Rest

            
            
Suggest correction
Creating personal tab
Creating personal tab
You can edit any tab online and save it as your Personal.

You can edit, replace or remove any tab part or add personal notes – all changes will be seen only by you.

Personal tabs can be accessed anytime from any device, even offline.
Learn more »
Give kudos to tab author, rate the tab!
1 2 3 4 5
comments
print report bad tab
2 comments total.
0 reply
Metallica rulz 72 Nov 11, 2007 01:25 PM

ts an exact copy of the other tab

0 reply
EC-500 30 Mar 05, 2008 04:18 PM

no.
its definitly not.

this is dialed down to perfection. thts why i didnt bother to post the othr guitars parts.

guest
You may want to rate the tab now too:
select rating
Wanna post a correction for this tab? Suggest correction