Oops, an error
Loading. Please wait.

Smile In Your Sleep guitar pro

version 2
version 2
9,437 views 3 this week
6 commentsread comments
1 2 3 4 5
x 3
add to favorites
guitar tuner
Autoscroll
slow
fast
+/-
esc
set tempo
stop
Author
File Format
Filesize
Instruments
.gp5
56 Kb
rhythm_guitars, lead_guitars, basses, percussions
"Smile In Your Sleep"
demo version
Play now

or get full version for Free

×
Get full version now!
Learn and play this song
in Tab Pro
Try for free

or get $10 off Welcome Bonus

Get welcome bonus
Get access to Tab Pro version of “Smile In Your Sleep”!
Tab Pro is a premium guitar tab service, available on PC, Mac, iOS and Android
TRY FOR FREE
Your download will start in 7 seconds
×
Like this song? We have more! Follow us on Facebook for daily tips, lessons and other guitar-related content.
To download “Smile In Your Sleep” Guitar Pro tab click button below
Please note that you must have Guitar Pro software installed on your
computer in order to view this file.
Suggest correction
Give kudos to tab author, rate the tab!
1 2 3 4 5
comments
report bad tab
6 comments total. Showing first comments.
0 reply
Rebirah 256 Jul 12, 2006 12:29 PM

Or if you're you're too lazy to tune standard, you can play the first part of the bridge like this, then play the rest like normal.

This is if you're tuned drop D.

-----------------------------|-----------------------------|
-----------------------------|-----------------------------|
-----------------------------|-----------------------------|
--2-2--------------2---------|--2-2--------------2---------|
--2-2------x-x-x-x-2---------|--2-2------x-x-x-x-2---------|
--2-2------2-2-2-2-2---------|--2-2------2-2-2-2-2---------|

0 reply
guitar_freak91 1,099 Jul 12, 2006 04:14 PM

yo dude. part of the finger tapping is all wrong. haha. its not right at alllll. i mean. its all good besides the finger tapping. the first change of key is all screwed up.

0 reply
Rebirah 256 Jul 12, 2006 08:04 PM

Do you mean this?
--------------------------------------------|
--------------------------------------------|
--------------------------------------------|
----10-12---10-14---12---10-16---10-12---14-|
--8-------8-------8----8-------8-------8----|
--------------------------------------------|

I've seen them live, he doesnt go down to 3 / 5, he moves up a fret.

guest
You may want to rate the tab now too:
select rating