Oops, an error
Loading. Please wait.

Smile In Your Sleep Bass Tab

version 5
version 5
474 views 1 this week
no commentswrite comment
1 2 3 4 5
please rate
add to favorites
launch autoscroll
font size
0
reset
guitar tuner
Tab Pro tools
  • play this tab
  • loop segment
  • change instrument
  • show fretboard
  • metronome
×
Best way to learn
"Smile In Your Sleep"
Autoscroll
slow
fast
+/-
esc
set tempo
stop
Difficulty
Tuning
novice
C# G# C# F# A# D#
This is for the five string players who just so happen to be in C# sharp tuning. Simply, 
it is. Play with song to get the rythems. GREAT SONG.

C# Tuning low to high (Db,Gb,B,E,Ab)
For tuning, go to tunemybass.com and go to custom tuning.

Intro/Verse
-------------------------------------------|
-------------------------------------------|
--666-6-6---666-6-6---222-2-2---444-4-4----| (x3)
-------------------------------------------|
-------------------------------------------|

Chorus
-------------------------------------------|
-------------------------------------------|
-------------------------------------------| (x2)
------------------77777777(4x)-------------|
---44444444(x4)----------------------------|

Verse
-------------------------------------------|
-------------------------------------------|
--666-6-6---666-6-6---222-2-2---444-4-4----| (x2)
-------------------------------------------|
-------------------------------------------|

Chorus
-------------------------------------------|
-------------------------------------------|
-------------------------------------------| (x2)
------------------77777777(4x)-------------|
---44444444(x4)----------------------------|

Pre-breakdown/Breakdown
   Slow down on 3rd and 4th time
-------------------------------------------|
-------------------------------------------|
-----------------------------44------------| (x4)
--------------------77-7777-----6666-------|
--44-4444-44-4444--------------------------|

Chorus
-------------------------------------------|
-------------------------------------------|
-------------------------------------------| (x2)
------------------77777777(4x)-------------|
---44444444(x4)----------------------------|

Ending
--------------------------------------------|
--------------------------------------------|
----------------------------44-4444---------|
-------------------77-7777----------666666--|
--44-4444-44-4444-------------------------4-|
comments
We did not receive enough feedback on this tab! Please rate:
print report bad tab
1 2 3 4 5
I want to post or [tab]
guest
You may want to rate the tab now too:
select rating
Please do not post tabs as comments. Select "correction" instead!