Oops, an error
Loading. Please wait.

Smile In Your Sleep tab

version 5
23,398 views 6 this week
13 commentsread comments
1 2 3 4 5
x 16
add to favorites
×
Save as Personal and add changes to this tab that will be seen only by you. Learn more ›
×
You can save this tab as Personal to edit and correct it or add notes. All changes will be seen only by you. Learn more »
launch autoscroll
font size
0
reset
how to read this tab
guitar tuner
edit
Autoscroll
slow
fast
+/-
esc
set tempo
stop
Author
Difficulty
Id like to thank  number13islucky, kiefermatot and im__Ben for helping me compile this 
via there tabs.

this is whole tab and i would say atleast 95% accurate.If anyone has corrections please 
me in the comments or email me wulse@msn.com

intro and verse(only guitar one plays this)

 L L R  L L R  L R    L L R  L L R  L R
E--------------------|---------------------|
B--------------------|---------------------|
G--------------------|--------------------*|x 2
D---9------9-17---16-|---9-19---9-16---17-*|
A-7---15-7------7----|-7------7------7-----|
d--------------------|---------------------|

  L L R  L L R  L R    L L R  L L R  L R
E--------------------|--------------------|
B--------------------|--------------------|
G--------------------|--------------------|
D---5-12---5-14---12-|---5-16---5-12---14-|
A-3------3------3----|-3------3------3----|
d--------------------|--------------------|

  L L R  L L R  L R    L L R  L L R  L R
E--------------------|--------------------|
B--------------------|--------------------|
G--------------------|--------------------|
D---7-17---7-16---14-|---7-12---7-14---16-|
A-5------5------5----|-5------5------5----|
d--------------------|--------------------|


Chorus
(guitar 1)
e-------------|
b-------------|
g--9-5-x-9-5--|x1
d--9-5-x-9-5--|
a--7-3-x-7-3--|(0:31-0:52)
d--7-3-x-7-3--|

Guitar 2 chorus
e---------------------------------------------------------------|
b---------------------------------------------------------------|
g---------------------------------------------------------------|
d---------------------------------------------------------------|
a--14-14-12-12--14-14-12-12--14-14-12-12--10-10-9-9--10-10-9-9--|
d---------------------------------------------------------------|

e---------------------------------------15--|
b-------------------------------------------|
g-------------------------------------------|x1
d-------12------12------12------12----------|
a--9-10----9-10----9-10----9-10----9-10-----|(0:42-0:52)
d-------------------------------------------|

verse(only guitar one plays this)

 L L R  L L R  L R    L L R  L L R  L R
E--------------------|---------------------|
B--------------------|---------------------|
G--------------------|--------------------*|x 2
D---9------9-17---16-|---9-19---9-16---17-*|
A-7---15-7------7----|-7------7------7-----|
d--------------------|---------------------|

  L L R  L L R  L R    L L R  L L R  L R
E--------------------|--------------------|
B--------------------|--------------------|
G--------------------|--------------------|
D---5-12---5-14---12-|---5-16---5-12---14-|
A-3------3------3----|-3------3------3----|
d--------------------|--------------------|

  L L R  L L R  L R    L L R  L L R  L R
E--------------------|--------------------|
B--------------------|--------------------|
G--------------------|--------------------|
D---7-17---7-16---14-|---7-12---7-14---16-|
A-5------5------5----|-5------5------5----|
d--------------------|--------------------|


just before 2nd chorus theres a pickslide on the EA strings

then play

Chorus 2
e-------------|
b-------------|
g--9-5-x-9-5--|x1
d--9-5-x-9-5--|
a--7-3-x-7-3--|(1:14-1:34)
d--7-3-x-7-3--|


guitar 2 chorus2
e---------------------------------------------------------------|
b---------------------------------------------------------------|
g---------------------------------------------------------------|
d---------------------------------------------------------------|
a--14-14-12-12--14-14-12-12--14-14-12-12--10-10-9-9--10-10-9-9--|
d---------------------------------------------------------------|

e---------------------------------------15--|
b-------------------------------------------|
g-------------------------------------------|x1
d-------12------12------12------12----------|
a--9-10----9-10----9-10----9-10----9-10-----|(1:24-1:34)
d-------------------------------------------|

e--15-15-14-14--------|
b--------------15-15--|
g---------------------|x3
d---------------------|
a---------------------|(1:47-1:53)
d---------------------|

heavy bridge part with slight palm mute i think.


e-----------|
b-----------|
g----5-7-4--|x2
d--2-5-7-4--|
a--2-3-5-2--|
d--2--------|

e-----------|
b-----------|
g----5-7-4--|x2
d--2-5-7-4--|
a--2-3-5-2--|
d--2--------|

as each chord above is played this time guitar 2 plays

e--15-15-14-14--------|
b--------------15-15--|
g---------------------|x3
d---------------------|
a---------------------|(1:47-1:53)
d---------------------|
screamy interlude/brige

E|-------------------------------------------------------------------------------------|
b|-------------------------------------------------------------------------------------|
g|-9-9-12-12-11-11-9-9-9-9-12-12-11-11-9-9-9-9-12-12-11-11-9-9-9-9-12-12-11-11-9-9-----|
d|-x-x-x--x--x--x--x-x-x-x-x--x--x--x--x-x-x-x-x--x--x--x--x-x-x-x-x--x--x--x--x-x-----|
a|-7-7-10-10-9--9--7-7-7-7-10-10-9--9--7-7-7-7-10-10-9--9--7-7-7-7-10-10-9--9--7-7-----|
d|-------------------------------------------------------------------------------------|

E|-------------------------------------------------------------------------------------|
b|-------------------------------------------------------------------------------------|
g|-14-14-14-14-14-14-12-12-12-12-12-12-14-14-14-14-14-14-16-16-16-16-16-16-------------|
d|-x--x--x--x--x--x--x--x--x--x--x--x--x--x--x--x--x--x--x--x--x--x--x--x--------------|
a|-12-12-12-12-12-12-10-10-10-10-10-10-12-12-12-12-12-12-14-14-14-14-14-14-------------|
d|-------------------------------------------------------------------------------------|

Guitar 1
quiet tapping interlude (x2)
  L L R  L L R  L R    L L R  L L R  L R
E--------------------|--------------------|
B--------------------|--------------------|
G--------------------|--------------------|
D---9-17---9-17---17-|---9-19---9-19---19-|
A-7------7------7----|-7------7------7----|
d--------------------|--------------------|

  L L R  L L R  L R    L L R  L L R  L R
E--------------------|--------------------|
B--------------------|--------------------|
G--------------------|--------------------|
D---9-21---9-21---21-|---9-21---9-21---21-|
A-7------7------7----|-7------7------7----|
d--------------------|--------------------|

  L L R  L L R  L R    L L R  L L R  L R
E--------------------|--------------------|
B--------------------|--------------------|
G--------------------|--------------------|
D---5-17---5-17---17-|---5-16---5-16---16-|
A-3------3------3----|-3------3------3----|
d--------------------|--------------------|

L L R  L L R  L R    L L R  L L R  L R
E--------------------|--------------------|
B--------------------|--------------------|
G--------------------|--------------------|
D---7-17---7-17---17-|---7-14---7-14---14-|
A-5------5------5----|-5------5------5----|
d--------------------|--------------------|


Chorus 3 (guitar 1)
e-------------|
b-------------|
g--9-5-x-9-5--|x1
d--9-5-x-9-5--|
a--7-3-x-7-3--|(2:42-3:02)
d--7-3-x-7-3--|

Chorus 3(guitar 2)
e---------------------------------------------------------------|
b---------------------------------------------------------------|
g---------------------------------------------------------------|
d---------------------------------------------------------------|
a--14-14-12-12--14-14-12-12--14-14-12-12--10-10-9-9--10-10-9-9--|
d---------------------------------------------------------------|

e---------------------------------------15--|
b-------------------------------------------|
g-------------------------------------------|x1
d-------12------12------12------12----------|
a--9-10----9-10----9-10----9-10----9-10-----|(2:52-3:02)
d-------------------------------------------|

e--15-15-14-14--------|
b--------------15-15--|
g---------------------|x3
d---------------------|
a---------------------|(3:04-3:10)
d---------------------|

finsh with the heavy slight palm muting

e-------------|
b-------------|
g----5-7-4----|x1
d--2-5-7-4-2--|
a--2-3-5-2-2--|(3:02-3:13)
d--2-------2--|

e--15-15-14-14--------|
b--------------15-15--|
g---------------------|x3
d---------------------|
a---------------------|(3:04-3:10)
d---------------------|

meh this is my 2nd tap but my 1st tab failed... boooo!!!

corrections 2 wulse@msn.com or the comments please! thanks:)
Suggest correction
Creating personal tab
Creating personal tab
You can edit any tab online and save it as your Personal.

You can edit, replace or remove any tab part or add personal notes – all changes will be seen only by you.

Personal tabs can be accessed anytime from any device, even offline.
Learn more »
comments
print report bad tab
13 comments total. Showing first comments.
-1 reply
thedcups 30 May 29, 2006 06:34 PM

this tab is like my penis, beautiful

0 reply
Emericask8r3506 155 Jun 14, 2006 03:06 PM

great tab. except i failed to find any pickslides...

0 reply
fret13 1,031 Aug 08, 2006 09:18 AM

umm i think you got the tuning wrong its standard
i could be wrong but thats how i hear it

guest
You may want to rate the tab now too:
select rating
Wanna post a correction for this tab? Suggest correction