Oops, an error
Loading. Please wait.

Sound Of The Sun Tab

version 1
version 1

Whole song

Interactive

9,286 views 9 this week
18 commentsread comments
1 2 3 4 5
accurate
x 11
add to favorites
launch autoscroll
font size
0
reset
how to read this tab
guitar tuner
Autoscroll
slow
fast
+/-
esc
set tempo
stop
Help us to improve Ultimate-Guitar.com Take our survey!
×
Author
-----------------------------------------------------------------
Sound Of The Sun - Silverstein
-----------------------------------------------------------------
Email: enjoi_globe_sk8er_guy@yahoo.com
Tuning: DADGBe

UPDATE: This is the correct version of the intro and i included the 2nd guitar in the prechorus

2nd UPDATE: I get the fact that this song MIGHT be a half step down (DbAbDbGbBbeb) or a 
step down (CGCFAD) but i tabbed this in regular Drop D and it sounds good enough to me.

Intro (0:00) 
e|---------------------------------------------------------------------------------|
B|---------------------------------------------------------------------------------|
G|---------------------------------------------------------------------------------|
D|-3~--6~--1~---3~--6~--11111111-8-88-1-11-3-3333333-6-66-5-55-1-1111111-8-88-6-66-|
A|-3~--6~--1~---3~--6~--11111111-8-88-1-11-3-3333333-6-66-5-55-1-1111111-8-88-6-66-|
D|-3~--6~--1~---3~--6~--11111111-8-88-1-11-3-3333333-6-66-5-55-1-1111111-8-88-6-66-|
PM                      ........             .......

(0:16)
e|----------------------------------------|
B|----------------------------------------|
G|---------------------3-3333333-6666-6-8-|
D|-3-3333333-6-66-5-55-3-3333333-6666-6-8-|
A|-3-3333333-6-66-5-55-1-1111111-4444-4-6-|
D|-3-3333333-6-66-5-55--------------------|
PM   .......             .......

Verse (0:21)
e|-----------------------------------------------------------------------------|
B|-----------------------------------------------------------------------------|
G|-10~---10-6~---6---------------------------------------------------------888-|
D|-10~---10-6~---6-6~---6-5~---5-1~---111-33333333-333333-3-11111111-11111-xxx-|
A|-8~----8--4~---4-6~---6-5~---5-1~---111-33333333-333333-3-11111111-11111-666-|
D|-----------------6~---6-5~---5-1~---111-33333333-333333-3-11111111-11111-----|
PM                                        ........ ......   ........ .....

(0:38)
e|-----------------------------------------|
B|-----------------------------------------|
G|-------888-------888-------888-------888-|
D|-55555-xxx-55555-xxx-33333-xxx-33333-xxx-|
A|-55555-666-55555-666-33333-666-33333-666-|
D|-55555-----55555-----33333-----33333-----|
PM .....     .....     .....     .....

PreChorus Guitar 1 (0:43)
e|----------------------------------|
B|----------------------------------|
G|-6-5-3------3---------------------|
D|----------6----88888888-8888-8888-|
A|--------4------88888888-8888-8888-|
D|---------------88888888-8888-8888-|
PM               ........ ....

PreChorus Guitar 2 (0:43)
e|----------------------------------|
B|--------2-1-----------------------|
G|-----3------3---------------------|
D|---3-----------88888888-8888-8888-|
A|-1-------------88888888-8888-8888-|
D|---------------88888888-8888-8888-|
PM              ........ ....

Chorus (0:49)
e|-----------------------------------------------------------------|
B|-----------------------------------------------------------------|
G|-1010-1212-1313-1515-1313-1212-1010-88-88888888-1313131313131313-|
D|-x-x--x-x--x-x--x-x--x-x--x-x--x-x--xx-xxxxxxxx-x-x-x-x-x-x-x-x--|
A|-8-8--1010-1111-1313-1111-1010-8-8--66-66666666-1111111111111111-|
D|-----------------------------------------------------------------|

(0:54)
e|-------------------------------------------------------------|
B|-------------------------------------------------------------|
G|-1818181818181818-1313131313131313-88888888-1212121212121212-|
D|-x-x-x-x-x-x-x-x--x-x-x-x-x-x-x-x--xxxxxxxx-x-x-x-x-x-x-x-x--|
A|-1616161616161616-1111111111111111-66666666-1010101010101010-|
D|-------------------------------------------------------------|

Chorus (1:00)
e|-----------------------------------------------------------------|
B|-----------------------------------------------------------------|
G|-1010-1212-1313-1515-1313-1212-1010-88-88888888-1313131313131313-|
D|-x-x--x-x--x-x--x-x--x-x--x-x--x-x--xx-xxxxxxxx-x-x-x-x-x-x-x-x--|
A|-8-8--1010-1111-1313-1111-1010-8-8--66-66666666-1111111111111111-|
D|-----------------------------------------------------------------|

(1:05)
e|------------------------------------------------------|
B|------------------------------------------------------|
G|-1818181818181818-1313131313131313-88888888-----------|
D|-x-x-x-x-x-x-x-x--x-x-x-x-x-x-x-x--88888888-5-55-8-88-|
A|-1616161616161616-1111111111111111-66666666-5-55-8-88-|
D|--------------------------------------------5-55-8-88-|

After Chorus (1:10)
e|--------------------------------------------------------------------------------|
B|--------------------------------------------------------------------------------|
G|-------------------------------------------------------------3-3333333-6666-6-8-|
D|-3-3333333-6-66-5-55-1-1111111-8-88-6-66-3-3333333-6-66-5-55-3-3333333-6666-6-8-|
A|-3-3333333-6-66-5-55-1-1111111-8-88-6-66-3-3333333-6-66-5-55-1-1111111-4444-4-6-|
D|-3-3333333-6-66-5-55-1-1111111-8-88-6-66-3-3333333-6-66-5-55--------------------|
PM   .......             .......             .......

Verse (1:21)
e|-----------------------------------------------------------------------------|
B|-----------------------------------------------------------------------------|
G|-10~---10-6~---6---------------------------------------------------------888-|
D|-10~---10-6~---6-6~---6-5~---5-1~---111-33333333-333333-3-11111111-11111-xxx-|
A|-8~----8--4~---4-6~---6-5~---5-1~---111-33333333-333333-3-11111111-11111-666-|
D|-----------------6~---6-5~---5-1~---111-33333333-333333-3-11111111-11111-----|
PM                                        ........ ......   ........ .....

(1:38)
e|-----------------------------------------|
B|-----------------------------------------|
G|-------888-------888-------888-------888-|
D|-55555-xxx-55555-xxx-33333-xxx-33333-xxx-|
A|-55555-666-55555-666-33333-666-33333-666-|
D|-55555-----55555-----33333-----33333-----|
PM .....     .....     .....     .....

PreChorus (1:43)
e|---------------------------------|
B|---------------------------------|
G|-/6-5-3--------------------------|
D|-----------6--88888888-8888-8888-|
A|--------4-----88888888-8888-8888-|
D|--------------88888888-8888-8888-|
PM              ........ ....

Chorus (1:49)
e|-----------------------------------------------------------------|
B|-----------------------------------------------------------------|
G|-1010-1212-1313-1515-1313-1212-1010-88-88888888-1313131313131313-|
D|-x-x--x-x--x-x--x-x--x-x--x-x--x-x--xx-xxxxxxxx-x-x-x-x-x-x-x-x--|
A|-8-8--1010-1111-1313-1111-1010-8-8--66-66666666-1111111111111111-|
D|-----------------------------------------------------------------|

(1:54)
e|-------------------------------------------------------------|
B|-------------------------------------------------------------|
G|-1818181818181818-1313131313131313-88888888-1212121212121212-|
D|-x-x-x-x-x-x-x-x--x-x-x-x-x-x-x-x--xxxxxxxx-x-x-x-x-x-x-x-x--|
A|-1616161616161616-1111111111111111-66666666-1010101010101010-|
D|-------------------------------------------------------------|

Chorus (2:00)
e|-----------------------------------------------------------------|
B|-----------------------------------------------------------------|
G|-1010-1212-1313-1515-1313-1212-1010-88-88888888-1313131313131313-|
D|-x-x--x-x--x-x--x-x--x-x--x-x--x-x--xx-xxxxxxxx-x-x-x-x-x-x-x-x--|
A|-8-8--1010-1111-1313-1111-1010-8-8--66-66666666-1111111111111111-|
D|-----------------------------------------------------------------|

(2:05)
e|------------------------------------------------------|
B|------------------------------------------------------|
G|-1818181818181818-1313131313131313-88888888-----------|
D|-x-x-x-x-x-x-x-x--x-x-x-x-x-x-x-x--88888888-5-55-8-88-|
A|-1616161616161616-1111111111111111-66666666-5-55-8-88-|
D|--------------------------------------------5-55-8-88-|

Breakdown (2:11)
e|---------------------------------------------------|
B|---------------------------------------------------|
G|---------------------------------------------------|
D|-3~--6~--1~---3~--6~--11111111---------------------|
A|-3~--6~--1~---3~--6~--11111111---------------------|
D|-3~--6~--1~---3~--6~--11111111-8h10p8h10p8h10p8h10-|
PM                      ........

(2:22)
e|----------------------------------------------------------------------------------|
B|----------------------------------------------------------------------------------|
G|----------------------------------------------------------------------------------|
D|-33-3-3~---------------11-1-1---------------33-3-3~---------------55-5-5~-88-8-8~-|
A|-33-3-3~---------------11-1-1---------------33-3-3~---------------55-5-5~-88-8-8~-|
D|-33-3-3~-6-5-3-5-3-5-1-11-1-1-6-5-6-8-6-5-1-33-3-3~-6-5-3-5-3-5-1-55-5-5~-88-8-8~-|
PM .. .                  .. .                 .. .                  .. .    .. .

(2:32)
e|--------------------------------------------------------------------------|
B|--------------------------------------------------------------------------|
G|--------------------------------------------------------------------------|
D|-33-3-3~---------------11-1-1---------------33-3-3~---------------55-5-5~-|
A|-33-3-3~---------------11-1-1---------------33-3-3~---------------55-5-5~-|
D|-33-3-3~-6-5-3-5-3-5-1-11-1-1-6-5-6-8-6-5-1-33-3-3~-6-5-3-5-3-5-1-55-5-5~-|
PM .. .                  .. .                 .. .                  .. .

PreChorus (2:42)
e|------------------------------------------------------------------|
B|------------------------------------------------------------------|
G|----------------/6-5-3--------------------------------------------|
D|-8-8-8-10-10-10------------6-88888888-88888888-88888888-8888-8888-|
A|-8-8-8-10-10-10---------4----88888888-88888888-88888888-8888-8888-|
D|-8-8-8-10-10-10--------------88888888-88888888-88888888-8888-8888-|
PM . . . .  .  .               ........ ........ ........ ....

Chorus (2:52)
e|-----------------------------------------------------------------|
B|-----------------------------------------------------------------|
G|-1010-1212-1313-1515-1313-1212-1010-88-88888888-1313131313131313-|
D|-x-x--x-x--x-x--x-x--x-x--x-x--x-x--xx-xxxxxxxx-x-x-x-x-x-x-x-x--|
A|-8-8--1010-1111-1313-1111-1010-8-8--66-66666666-1111111111111111-|
D|-----------------------------------------------------------------|

(2:57)
e|-------------------------------------------------------------|
B|-------------------------------------------------------------|
G|-1818181818181818-1313131313131313-88888888-1212121212121212-|
D|-x-x-x-x-x-x-x-x--x-x-x-x-x-x-x-x--xxxxxxxx-x-x-x-x-x-x-x-x--|
A|-1616161616161616-1111111111111111-66666666-1010101010101010-|
D|-------------------------------------------------------------|

Chorus (3:03)
e|-----------------------------------------------------------------|
B|-----------------------------------------------------------------|
G|-1010-1212-1313-1515-1313-1212-1010-88-88888888-1313131313131313-|
D|-x-x--x-x--x-x--x-x--x-x--x-x--x-x--xx-xxxxxxxx-x-x-x-x-x-x-x-x--|
A|-8-8--1010-1111-1313-1111-1010-8-8--66-66666666-1111111111111111-|
D|-----------------------------------------------------------------|

(3:08)
e|----------------------------------------------------------|
B|----------------------------------------------------------|
G|-1818181818181818-1313131313131313-88888888---------------|
D|-x-x-x-x-x-x-x-x--x-x-x-x-x-x-x-x--88888888-5-55-8-88--3\-|
A|-1616161616161616-1111111111111111-66666666-5-55-8-88--3\-|
D|--------------------------------------------5-55-8-88--3\-|

| /  slide up
| \  slide down
| h  hammer-on
| p  pull-off
| ~  vibrato
| +  harmonic
| x  Mute note
Suggest correction
comments
print report bad tab
18 comments total. Showing first comments.
0 reply
fret13 1,031 wrote on June 8 2007, 08:54 am

guitar one itro?

0 reply
Carlson2000 533 wrote on June 8 2007, 10:40 am

it sounds wrong because the guitars are tuned a half step down and drop-d (DbAbDbGbBbEb)

0 reply
RiseAgainst77 10 wrote on June 11 2007, 09:32 pm

missing the intro parts and post chorus parts, but 5 stars

guest
You may want to rate the tab now too:
select rating
Wanna post a correction for this tab? Suggest correction