Oops, an error
Loading. Please wait.

Sound Of The Sun Tab

version 4
version 4

Whole song

Interactive

1,059 views 1 this week
6 commentsread comments
1 2 3 4 5
please rate
add to favorites
launch autoscroll
font size
0
reset
how to read this tab
guitar tuner
Autoscroll
slow
fast
+/-
esc
set tempo
stop
Help us to improve Ultimate-Guitar.com Take our survey!
×
Author
Difficulty
novice
----------------------------------------------------------------------------
                      Silverstein - Sound Of The Sun
----------------------------------------------------------------------------
Tabbed by:ZackRulezd00d
Email:zackrulezd00d@yahoo.com

I Listened To This Song And Played It Over And Over Till I Thought It Was VERY, Very 
If Not Perfect. =] Rate And Comment Please. =]

Oh, And I Couldn't Figure Out The Lead Guitar In The Verse Because Theyre Complicated Chords.
In The Background That You Can Barely Hear So I Put The Rythm Guitar. Enjoy. =]

Tuning:CGCFAD

INTRO
D|-------------------------------------------------------------------------|
A|-------------------------------------------------------------------------|
F|-------------------------------------------------------------------------|
C|-------------------------5-5---------------------------------------------|
G|-5~-1~-3~--5~-1~-3333333-3-3-3-3-5-5-555-5--------------1-1-111-1--------|
C|-5~-1~-3~--5~-1~-3333333-----3-3-5-5-555-5-/8-7-5-7-5-3-1-1-111-1--------|
X|                 xxxxxxx             xxx                    xxx

D|-------------------------------------------------------------------------|
A|-------------------------------------------------------------------------|
F|-------------------------------------------------------------------------|
C|------------------------------------5-55-555-8-88-8-10-12~---------------|
G|-3-1-0-1-0---5-5-555-5--------------3-33-333-6-66-6-8--10~---------------|
C|-----------3-5-5-555-5-/8-7-5-7-5-3--------------------------------------|
X|                 xxx

VERSE
D|-------------------------------------------------------------------------|
A|-------------------------------------------------------------------------|
F|-------------------------------------------------------------------------|
C|-12-8~---8---------------------------------------------------------------|
G|-10-6~---6-8~---8-7~-7-3~-5555555555555-333-1111111111111-111------------|
C|-----------8~---8-7~-7-3~-5555555555555-333-1111111111111-111------------|
X|                          xxxxxxxxxxxxx     xxxxxxxxxxxxx

                                            PRE-CHORUS
D|----------------------------------------|--------------------------------|
A|----------------------------------------|--------------------------------|
F|----------------------------------------|-/8-7-5-----5-------------------|
C|----------------------------------------|----------8---------------------|
G|-88888-888-88888-888-77777-777-33333333-|--------6-----8888888888888888--|
C|-88888-888-88888-888-77777-777-33333333-|--------------8888888888888888--|
X| xxxxx     xxxxx     xxxxx     xxxxxxxx                xxxxxxxxxxxxxxxx
                                                      (Slowly^Let^Off^P.M.)

CHORUS
D|-------------------------------------------------------------------------|
A|-------------------------------------------------------------------------|
F|-12-12-14-14-15-15-17-17-15-15-14-14-12-12-14-14--10------15-------------|
C|---------------------------------------------------->x8----->x8----------|
G|-10-10-12-12-13-13-15-15-13-13-12-12-10-10-12-12--8-------13-------------|
C|-------------------------------------------------------------------------|

   1ST ENDING                            2ND ENDING
D|-------------------------------------|-----------------------------------|
A|-------------------------------------|-----------------------------------|
F|-20----19----15----10----15----14----|-20----19----15----10--------------|
C|--->x4--->x4--->x8--->x6--->x2--->x8-|--->x4--->x4--->8---->7--5-5-------|
G|-18----17----13----8-----13----12----|-18----17----13----8-----3-3-3-3---|
C|-------------------------------------|-----------------------------3-3---|

   REPEAT INTRO RIFF
D|-------------------------------------------------------------------------|
A|-------------------------------------------------------------------------|
F|-------------------------------------------------------------------------|
C|-------------------------------------------------------------------------|
G|-5-5-555-5--------------1-1-111-1-3-1-0-1-0---5-5-555-5------------------|
C|-5-5-555-5-/8-7-5-7-5-3-1-1-111-1-----------3-5-5-555-5-/8-7-5-7-5-3-----|
X|     xxx                    xxx                   xxx

D|-------------------------------------------------------------------------|
A|-------------------------------------------------------------------------|
F|-------------------------------------------------------------------------|
C|-5-55-555-8-8888-10-12~---12-8~---8--------------------------------------|
G|-3-33-333-6-6666-8--10~---10-6~---6-8~---8-7~-7-3~-5555555555555-333-----|
C|------------------------------------8~---8-7~-7-3~-5555555555555-333-----|
X|                                                   xxxxxxxxxxxxx


D|-------------------------------------------------------------------------|
A|-------------------------------------------------------------------------|
F|-------------------------------------------------------------------------|
C|-------------------------------------------------------------------------|
G|-1111111111111-111-88888-888-88888-888-77777-777-33333333----------------|
C|-1111111111111-111-88888-888-88888-888-77777-777-33333333----------------|
X| xxxxxxxxxxxxx     xxxxx     xxxxx     xxxxx     xxxxxxxx

  PRE-CHORUS
D|-------------------------------|
A|-------------------------------|
F|-/8-7-5-----5------------------|
C|----------8--------------------|
G|--------6-----8888888888888888-|
C|--------------8888888888888888-|
                xxxxxxxxxxxxxxxx
              (Let Off P.M. Again)

CHORUS
D|-------------------------------------------------------------------------|
A|-------------------------------------------------------------------------|
F|-12-12-14-14-15-15-17-17-15-15-14-14-12-12-14-14--10------15-------------|
C|---------------------------------------------------->x8------>x8---------|
G|-10-10-12-12-13-13-15-15-13-13-12-12-10-10-12-12--8-------13-------------|
C|-------------------------------------------------------------------------|

D|-----------------------------------------|\
A|---------------------------------------|\|\ \
F|-20----19----15----10----15----14------|\|\  \No Second Ending This Time
C|--->x4--->x4--->x8--->x6--->x2--->x8---|\|\  /Repeat Chorus Twice Before Bridge
G|-18----17----13----8-----13----12------|\|\ /
C|-----------------------------------------|\

   BRIDGE
D|---------------------------------------------|
A|---------------------------------------------|
F|---------------------------------------------|
C|---------------------------------------------|
G|-5~-1~-3~-5~-3~-33333333---------------------|
C|-5~-1~-3~-5~-3~-33333333--7h8-10h12-10p8-7h8-|
X|                xxxxxxxx

D|-------------------------------------------------------------------------|
A|-------------------------------------------------------------------------|
F|-------------------------------------------------------------------------|
C|-------------------------------------------------------------------------|
G|-55-55----------------11-11-3-1-0-1-0-----55-55--------------------------|
C|-55-55-/8-7-5-7-5-3h5-11-11-----------3h5-55-55-/8-7-5-7-5-3h5-----------|
X| xx x                 xx x                xx x

   FIRST ENDING          SECOND ENDING INTO PRE-CHORUS
D|---------------------|---------------------------------------------------|
A|---------------------|---------------------------------------------------|
F|---------------------|-------------------/8-7-5-----5--------------------|
C|-55-55---------------|-55-55----------------------8----------------------|
G|-33-33-11-1-3--------|-33-33-1-1-1-3-3-3--------6------8-----------------|
C|-------11-1-3-3h5----|-------1-1-1-3-3-3---------------8>x32-------------|
X| xx x  xx x            xx x  x x x x x x    (Once Again^Let Go Of P.M.)

CHORUS
D|-------------------------------------------------------------------------|
A|-------------------------------------------------------------------------|
F|-12-12-14-14-15-15-17-17-15-15-14-14-12-12-14-14--10------15-------------|
C|---------------------------------------------------->x8----->x8----------|
G|-10-10-12-12-13-13-15-15-13-13-12-12-10-10-12-12--8-------13-------------|
C|-------------------------------------------------------------------------|

   1ST ENDING                           LAST ENDING
D|-------------------------------------|-----------------------------------|
A|-------------------------------------|-----------------------------------|
F|-20----19----15----10----15----14----|-20----19----15----10--------------|
C|--->x4--->x4--->x8--->x6--->x2--->x8-|--->x4--->x4--->8---->7--5-5-------|
G|-18----17----13----8-----13----12----|-18----17----13----8-----3-3-3-3-5\|
C|-------------------------------------|-----------------------------3-3-5\|


| /  slide up
| \  slide down
| h  hammer-on
| p  pull-off
| ~  let ring
| +  harmonic
| x  Mute note
============================================================================
Suggest correction
Give kudos to tab author, rate the tab!
1 2 3 4 5
comments
print report bad tab
6 comments total. Showing first comments.
+1 reply
HH_Emo_666 242 wrote on August 15 2008, 06:42 pm

this isnt drop C .. its Drop Db[or C#] just fix the tab by moving everything down one fret

-2 reply
ZackRulezd00d 52 wrote on August 15 2008, 09:09 pm

Well This Is The Song In Drop C Incase You Wanna Play It In Drop C. Thats Just What I Found It Easiest Playing In But Thanks For The Tip.

0 reply
ZackRulezd00d 52 wrote on August 20 2008, 09:22 pm

Nvm That Last Comment lol. Misunderstanding.

guest
You may want to rate the tab now too:
select rating
Please do not post tabs as comments. Select "correction" instead!