Oops, an error
Loading. Please wait.

Still Dreaming bass

version 1
version 1

Whole song

Interactive

3,247 views 1 this week
2 commentsread comments
1 2 3 4 5
x 3
add to favorites
×
Save as Personal and add changes to this tab that will be seen only by you. Learn more ›
×
You can save this tab as Personal to edit and correct it or add notes. All changes will be seen only by you. Learn more »
launch autoscroll
font size
0
reset
guitar tuner
edit
Autoscroll
slow
fast
+/-
esc
set tempo
stop
Author
+++++++++++++++++++++++++++++++
| Silverstein- Still Dreaming |
+++++++++++++++++++++++++++++++

Tuning: Down half step (Only E) --> EbADG

Intro
1.
G.|--------------------------------------------------------------------------|
D.|--------------------------------------------------------------------------|
A.|-33-3-3-311-1-1h3p1-----------------33-3-3-311-1-1h3p1----------------111-|
Eb|--------------------55-5-5-555-5-5-5-------------------55-5-5-555-5-5-----|

Verse
"Two AM, I low down sleep in slumber..."
2.
G |------------------------------------------------------------------------|
D |------------------------------------------------------------------------|
A.|-333333333333-1111--------------1111--------------------------------111-|--x3
Eb|-------------------555555555555------2222222222222222-0000000000000-----|

Pre-Chorus
"How am I so lucky I found you..."
3.
G |-----------|
D |-----------|
A |-----------|
Eb|-5~--------|

Chorus
"Sometimes I feel like Im still dreaming..."
4.
G |-------------------------------------------------------------------------|
D |-------------------------------------------------------------------------|
A |-33333333-11111131-------------------33333333-11111131-------------------|
Eb|-------------------55555555-55555555-------------------5-5-5-55-5-5-5-55-|

5.
G |-------------------------------------------------------------------------|
D |-------------------11111111-11111111-------------------------------------|
A |-11111111-33333333-------------------33333333-11111131---------------111-|
Eb|-------------------------------------------------------55555555-5555-----|

Verse
"When we talk about all my old drama..."
6.
G |------------------------------------------------------------------------|
D |------------------------------------------------------------------------|
A.|-333333333333-1111--------------1111--------------------------------111-|--x3
Eb|-------------------555555555555------2222222222222222-0000000000000-----|

Pre-Chorus
"You know I would do anything for you..."
7.
G |-----------|
D |-----------|
A |-----------|
Eb|-5~--------|

Chorus
"Sometimes I feel like Im still dreaming..."
8.
G |-------------------------------------------------------------------------|
D |-------------------------------------------------------------------------|
A |-33333333-11111131-------------------33333333-11111131-------------------|
Eb|-------------------55555555-55555555-------------------5-5-5-55-5-5-5-55-|

9.
G |-------------------------------------------------------------------------|
D |-------------------11111111-11111111-------------------------------------|
A |-11111111-33333333-------------------33333333-11111131-------------------|
Eb|-------------------------------------------------------55555555-55555555-|

Bridge
"If you were feeling down..."
10.
G |---------------------------------|
D |---------------------------------|
A |-3~-3x-1~----3-1-----------------|--x4
Eb|-----------------5~-5x-4~--------|

"I'll fight till I die..."
11.
G |-------------------------------------------------------------------------|
D |----------------------------00000000-11111111-33333333-55555555-55555555-|
A |----------11111111-33333333----------------------------------------------|
Eb|-55555555----------------------------------------------------------------|

Chorus
"Sometimes I feel like Im still dreaming..."
12.
G |-------------------------------------------------------------------------|
D |-------------------------------------------------------------------------|
A |-33333333-11111131-------------------33333333-11111131-------------------|
Eb|-------------------55555555-55555555-------------------5-5-5-55-5-5-5-55-|

13.
G |-------------------------------------------------------------------------|
D |-------------------11111111-11111111-------------------------------------|
A |-11111111-33333333-------------------33333333-11111131-------------------|
Eb|-------------------------------------------------------55555555-55555555-|

"Lets run away...."
14.
G |-------------------------------------------------------------------------|
D |-------------------------------------------------------------------------|
A |-33333333-11111131-------------------33333333-11111131-------------------|
Eb|-------------------55555555-55555555-------------------5-5-5-55-5-5-5-55-|

15.
G |--------------------------------------------------------------------|
D |-------------------11111111-11111111--------------------------------|
A |-11111111-33333333-------------------3~--1~--3~--1~---3-1-----------|
Eb|----------------------------------------------------------5~--------|

Lyrics:

Two AM, I lie down deep in slumber.
Feelings are falling downward.
I want to forget.
Waking up, I hear the way your voice sounds.
My heart starts to pound, now...
To the rhythm of yours.
You're so angelic. Your words so symphonic.
Touch your lips to my soul, eat this sorrow away.
How am I so lucky, I found you?

Sometimes, I feel like I'm still dreaming.
It seems like everyday, you're always on my mind.
This is how we stay so connected, so connected
over space and time.

When we talk about all my old drama,
You look at me and wonder how I'm not insane.
Every week the days seem to get longer.
But you know our love gets stronger with every word we say.
Stronger every day.
You know I would do anything for you.

If you are feeling down, you know I feel it, now.
We give each other strength to make it through the darkness.
You take me to a place I never want to leave.
I'm in my deepest dream, I don't ever want to wake up.
I'll fight till I die, I won't say goodbye, and I won't let this pass me by.

Let's run away, run away, run away now.
Let's go away, go away to some place safe.
I want it all, now I want everything.

+++++++++++++++++++++++++++++++++
| RaiLeff                       |
| Underground__Dora@Hotmail.Com |
+++++++++++++++++++++++++++++++++

            
            
Suggest correction
Creating personal tab
Creating personal tab
You can edit any tab online and save it as your Personal.

You can edit, replace or remove any tab part or add personal notes – all changes will be seen only by you.

Personal tabs can be accessed anytime from any device, even offline.
Learn more »
Give kudos to tab author, rate the tab!
1 2 3 4 5
comments
print report bad tab
2 comments total.
0 reply
carrotcake 2,007 Jul 05, 2007 07:12 AM

come on RaiLeff, you can have this whole album by the end of this week lol

0 reply
ian4sho 196 Jul 05, 2007 01:13 PM

sweet tab dude, its like... perfect. you should tab out all the songs. keep it up

guest
You may want to rate the tab now too:
select rating
Wanna post a correction for this tab? Suggest correction