Oops, an error
Loading. Please wait.

Still Dreaming Tab

version 2
version 2

Whole song

Interactive

3,526 views 1 this week
no commentswrite comment
1 2 3 4 5
please rate
add to favorites
launch autoscroll
font size
0
reset
how to read this tab
guitar tuner
Autoscroll
slow
fast
+/-
esc
set tempo
stop
Help us to improve Ultimate-Guitar.com Take our survey!
×
Author
Difficulty
Tuning
novice
D A D G B E
-------------------------------------------------------------------------------
                            Still Dreaming- By Silverstein
-------------------------------------------------------------------------------
Tabbed by:Nico
Email:fballplayuh54@yahoo.com

Other tabs were a little off, heres how I play it. It's not perfect but it sounds decent to me.
Oh and I'd like to add how corny the line "touch your lips to my soul" is.
Tuning:Drop D
Intro
e|----------------------------------------------------------------------------------|
B|----------------------------------------------------------------------------------|
G|-11--7---11--9--7-----------------------------------------------------------------|
D|--x--x----x--x--x-----------------------------------------------------------------|
A|--9--5----9--7--5-----------------------------------------------------------------|
E|-----------------------Repeat-----------------------------------------------------|

Verse- Occasionally you will hear him moving his right hand to make the palm mutes 
or softer, just slider your hand farther down the bridge to make it louder.
e|---------------------------------------------------------------------------------------|
B|---------------------------------------------------------------------------------------|
G|---------------------------------------------------------------------------------------|
D|--3.---5.--------------------------------------------------5-x4------------------------|
A|--3.---5.---switch-between-these-until-you-hear-a-regular--5---------------------------|
E|--3.---5.--------------------------------------------------5---------------------------|
   PM
cont.
e|-------------------------------------------------------------------------------|
B|-------------------------------------------------------------------------------|
G|-------------------------------------------------------------------------------|
D|---3.----5.---6.---5.---5------------------------------------------------------|
A|---3.----5.---6.---5.---5x4----------------------------------------------------|
E|---3.----5.---6.---5.---5------------------------------------------------------|
     pm
cont.
e|--------------------------------------------------------------------------------|
B|--------------------------------------------------------------------------------|
G|--------------------------------------------------------------------------------|
D|---3.----5.---6.---5.---5-------------------------------------------------------|
A|---3.----5.---6.---5.---5----then-a-Pick-Slide----------------------------------|
E|---3.----5.---6.---5.---5-------------------------------------------------------|
Chorus is just Basically the same as the intro.

e|---------------------------------------------------------------------------------|
B|---------------------------------------------------------------------------------|
G|-11--7---11--9--7------------------------------------------11--12--(x??)---------|
D|--x--x----x--x--x------------------------------------------x---x-----------------|
A|--9--5----9--7--5------------------at-the-end-it-does-this-9--10-----------------|
E|-----------------------Repeat--------it-basically-switches-back-and-forth--------|
Then Repeat the Verse
Then chorus
Then theres a little breakdown or whatever. Just alternate between these two riffs.
e|-------------------------------------------------------------------------------|
B|-------------------------------------------------------------------------------|
G|---7/-5~--------------------7/-5~----------------------------------------------|
D|---x/-x~--9~-thats-riff-1---x/-x~--7~-----thats-riff-2-------------------------|
A|---5/-3~--x~----------------5/-3~--x~------------------------------------------|
E|----------7~-----------------------5~------------------------------------------|
cont.  the last part in this next bar is played softly.
e|-------------------------------------------------------------------------------------|
B|-------------------------------------------------------------------------------------|
G|------------------7----9-----11----12------14--x8----9-----9x4--9-x4---9-x4----------|
D|--7----9-----11---x-x8-x-x8--x--x8--x-x8----x--------10x4--9----10-----9-------------|
A|--x-x8-x--x8-x----5----7-----9-----10------12----------------------------------------|
E|--5----7-----9-x8--------------------------------------------------------------------|
Then chorus to finish it. and the second time it changes a bit(3:20)
e|-------------------------------------------------------------------------------------|
B|-------------------------------------------------------------------------------------|
G|-11-----12------11---12------11-----9----7-*---11-----12----11---12------------------|
D|-x--x8---x--x8--x-x8--x--x8--x--x8--x-x8-x-x8--x--x8---x-x8-x-x8--x-x8---------------|
A|-9------10------9----10------9------7----5-----9------10----9----10------------------|
E|-------------------------------------------------------------------------------------|
*- play that chord along with the drums beat.
cont.
e|-------------------------------------------------------------------------------------|
B|-------------------------------------------------------------------------------------|
G|---11----9-------7-------------------------------------------------------------------|
D|---x-x3--x--x3---x-x6----------------------------------------------------------------|
A|---9-----7-------5-------------------------------------------------------------------|
E|-------------------------------------------------------------------------------------|
So that was guitar one, now Im going to show the guitar two parts I can hear.

This part comes in after the intro. H=harmonic
e|12H---12H----------------------------------------------------------------------------|
B|---12H-------------------------------------------------------------------------------|
G|----------------------9--5----9--7--5------------------------------------------------|
D|-----------PickSLide--9--5----9--7--5------------------------------------------------|
A|----------------------7--3----7--5--3------------------------------------------------|
E|-------------------------------------------------------------------------------------|
                     ^Basically play those power chords along with the octave chords in the guitar 1.
The Chorus is same as the intro expect at the end where you add an extra power chord. It 
like this basically. (its just like the octave chords so consult that section for more info.)
e|------------------------------------------------------------------------------------|
B|------------------------------------------------------------------------------------|
G|--9--10-9--10-----------------------------------------------------------------------|
D|--9--10-9--10-----------------------------------------------------------------------|
A|--7--8--7--8------------------------------------------------------------------------|
E|------------------------------------------------------------------------------------|

I think thats Basically it.  I just basically harmonize guitar one with guitar two using 
instead of octave chords.

| /  slide up
| \  slide down
| h  hammer-on
| p  pull-off
| ~  vibrato
| +  harmonic
| x  Mute note
===============================================================================
Suggest correction
What's this?
You can suggest a correction to this tab. Community and Mods will review your correction and vote to approve or reject it.
comments
We did not receive enough feedback on this tab! Please rate:
print report bad tab
1 2 3 4 5
guest
You may want to rate the tab now too:
select rating
Please do not post tabs as comments. Select "correction" instead!