Oops, an error
Loading. Please wait.

Still Dreaming Tab

version 4
version 4

Whole song

Interactive

187 views 3 this week
no commentswrite comment
1 2 3 4 5
please rate
add to favorites
launch autoscroll
font size
0
reset
how to read this tab
guitar tuner
Tab Pro tools
  • play this tab
  • loop segment
  • change instrument
  • show fretboard
  • metronome
×
Best way to learn
"Still Dreaming"
Autoscroll
slow
fast
+/-
esc
set tempo
stop
Contributor
Difficulty
Tuning
novice
D# G# C# F# A# D#
Title: Still Dreaming
Artist: Silverstein
Album: Arrivals & Departures

I wrote this tab because I've seen a lot of wrong lead for the intro/chorus parts of the 
song. Not saying that the notes are wrong, but this is a much easier way of playing it. 
Please leave some comments for it.

Please note this tab is also a half-step down.

Not going to post all of the strumming patterns fully. If you know the song you will get the idea.
Also, the lead on the outro is somewhat similar to the notes played in the second part 
of the chorus, I usually just play that)

Intro (Lead)
e|-0-0-0-0-0-0-0-0-0-0-0-0-0-0-0-0-------------------------------------------|
B|-4-4-4-4-0-0-0-0-2-2-9-7-2-2-9-7-------------------------------------------|
G|---------------------------------------------------------------------------|
D|---------------------------------------------------------------------------|
A|---------------------------------------------------------------------------|
E|---------------------------------------------------------------------------|

(Rhythm) (Play once)
e|--12#------------14~~~~~---------------------------------------------------|
B|---------12#---------------------------------------------------------------|
G|---------------------------------------------------------------------------|
D|---------------------------------------------------//////////--------------|
A|---------------------------------------------------//////////--------------|
E|---------------------------------------------------//////////--------------|

e|---------------------------------------------------------------------------|
B|---------------------------------------------------------------------------|
G|-6----4----2----2----------------------------------------------------------|
D|-6----4----2----2----------------------------------------------------------|
A|-4----2----0----0----------------------------------------------------------|
E|---------------------------------------------------------------------------|

(Verse) (Play Twice)
e|---------------------------------------------------------------------------|
B|---------------------------------------------------------------------------|
G|-6-6-4-2-2-2-------------4-x-4-x-4-6---------------------------------------|
D|-6-6-4-2-2-4---4-4-2-2---4-x-4-x-4-6---------------------------------------|
A|-4-4-2-0-0-0-2-4-4-2-2---2-x-2-x-2-4---------------------------------------|
E|-------------0-2-2-0-0-----------------------------------------------------|
   *********************(PALM MUTE)

(Pre Chorus) (Lead)
e|---------------------------------------------------------------------------|
B|---------------------------------------------------------------------------|
G|---------------------------------------------------------------------------|
D|---------------7-----------------------------------------------------------|
A|--7-/-9-\7-----7-----------------------------------------------------------|
E|--5------------5-----------------------------------------------------------|

(Rhythm)
e|---------------------------------------------------------------------------|
B|---------------------------------------------------------------------------|
G|---------------------------------------------------------------------------|
D|--7-------------7---------------------------------////////-----------------|
A|--7-------------7---------------------------------////////-----------------|
E|--5-------------5---------------------------------////////-----------------|

(Chorus Part 1) (Lead) (Play Twice)
e|-0-0-0-0-0-0-0-0-0-0-0-0-0-0-0-0-------------------------------------------|
B|-4-4-4-4-0-0-0-0-2-2-9-7-2-2-9-7-------------------------------------------|
G|---------------------------------------------------------------------------|
D|---------------------------------------------------------------------------|
A|---------------------------------------------------------------------------|
E|---------------------------------------------------------------------------|

(Chorus Part 1) (Rhythm) (Play Twice)
e|---------------------------------------------------------------------------|
B|---------------------------------------------------------------------------|
G|-6----4----2----2----------------------------------------------------------|
D|-6----4----2----2----------------------------------------------------------|
A|-4----2----0----0----------------------------------------------------------|
E|---------------------------------------------------------------------------|

(Chorus Part 2) (Lead) (Play Once)
e|---------------------------------------------------------------------------|
B|--------------------------12-12-12-12-9-9-9-9-9-9-9-7-7-7-7-7-7------------|
G|-9-9-9-9-9-9-8-8-8-8-8-8---------------------------------------------------|
D|---------------------------------------------------------------------------|
A|---------------------------------------------------------------------------|
E|---------------------------------------------------------------------------|

e|---------------------------------------------------------------------------|
B|-5-5-5-5-5-4-4-4-4-5-5-5-5-4-4-4h5-4-2-2-2-2-2-2-2-2-2-2-2-2-2-2-2-2-------|
G|---------------------------------------------------------------------------|
D|---------------------------------------------------------------------------|
A|---------------------------------------------------------------------------|
E|---------------------------------------------------------------------------|

(Chorus Part Two) (Rhythm) (Play Once)
e|-----------------------------------------------------------------------------|
B|-----------------------------------------------------------------------------|
G|-4----6----9----9----6----4----2-----2---------------------------------------|
D|-4----6----9----9----6----4----2-----2---------------------------------------|
A|-2----4----7----7----4----2----0-----0---------------------------------------|
E|-----------------------------------------------------------------------------|

(Verse) (Play Twice)
e|---------------------------------------------------------------------------|
B|---------------------------------------------------------------------------|
G|-6-6-4-2-2-2-------------4-x-4-x-4-6---------------------------------------|
D|-6-6-4-2-2-4---4-4-2-2---4-x-4-x-4-6---------------------------------------|
A|-4-4-2-0-0-0-2-4-4-2-2---2-x-2-x-2-4---------------------------------------|
E|-------------0-2-2-0-0-----------------------------------------------------|
   *********************(PALM MUTE)

(Pre Chorus) (Lead)
e|---------------------------------------------------------------------------|
B|---------------------------------------------------------------------------|
G|---------------------------------------------------------------------------|
D|---------------7-----------------------------------------------------------|
A|--7-/-9-\7-----7-----------------------------------------------------------|
E|--5------------5-----------------------------------------------------------|

(Rhythm)
e|---------------------------------------------------------------------------|
B|---------------------------------------------------------------------------|
G|---------------------------------------------------------------------------|
D|--7-------------7---------------------------------////////-----------------|
A|--7-------------7---------------------------------////////-----------------|
E|--5-------------5---------------------------------////////-----------------|

(Chorus Part 1) (Lead) (Play Twice)
e|-0-0-0-0-0-0-0-0-0-0-0-0-0-0-0-0-------------------------------------------|
B|-4-4-4-4-0-0-0-0-2-2-9-7-2-2-9-7-------------------------------------------|
G|---------------------------------------------------------------------------|
D|---------------------------------------------------------------------------|
A|---------------------------------------------------------------------------|
E|---------------------------------------------------------------------------|

(Chorus Part 1) (Rhythm) (Play Twice)
e|---------------------------------------------------------------------------|
B|---------------------------------------------------------------------------|
G|-6----4----2----2----------------------------------------------------------|
D|-6----4----2----2----------------------------------------------------------|
A|-4----2----0----0----------------------------------------------------------|
E|---------------------------------------------------------------------------|

(Chorus Part 2) (Lead) (Play Once)
e|---------------------------------------------------------------------------|
B|--------------------------12-12-12-12-9-9-9-9-9-9-9-7-7-7-7-7-7------------|
G|-9-9-9-9-9-9-8-8-8-8-8-8---------------------------------------------------|
D|---------------------------------------------------------------------------|
A|---------------------------------------------------------------------------|
E|---------------------------------------------------------------------------|

e|---------------------------------------------------------------------------|
B|-5-5-5-5-5-4-4-4-4-5-5-5-5-4-4-4h5-4-2-2-2-2-2-2-2-2-2-2-2-2-2-2-2-2-------|
G|---------------------------------------------------------------------------|
D|---------------------------------------------------------------------------|
A|---------------------------------------------------------------------------|
E|---------------------------------------------------------------------------|

(Chorus) (Rhythm)
e|-----------------------------------------------------------------------------|
B|-----------------------------------------------------------------------------|
G|-4----6----9----9----6----4----2-----2---------------------------------------|
D|-4----6----9----9----6----4----2-----2---------------------------------------|
A|-2----4----7----7----4----2----0-----0---------------------------------------|
E|-----------------------------------------------------------------------------|

(Bridge) (Rhythm) (Not really sure what this is, this is my guess)
e|---------------------------------------------------------------------------|
B|---------------------------------------------------------------------------|
G|-7-7-7-7--6-6-6-6----------------------------------------------------------|
D|-9-9-9-9--7-7-7-7----------------------------------------------------------|
A|-9-9-9-9--9-9-9-9----------------------------------------------------------|
E|---------------------------------------------------------------------------|

(Lead) (Play Twice)
e|---------------------------------------------------------------------------|
B|---------------------------------------------------------------------------|
G|---------------------------------------------------------------------------|
D|--6---------------------------6--------------------------------------------|
A|----9---------------------------9------------------------------------------|
E|-7-----------5-7-4/5-7-4-----7------------5-7-4^~--------------------------|

(Lead and Rhythm)
e|---------------------------------------------------------------------------|
B|---------------------------------------------------------------------------|
G|---------6-6-8-8-9-9-11-11-13-13-13-13-13b---------------------------------|
D|-7-7-9-9-x-x-x-x-x-x-x--x---x--x--x--x--x----------------------------------|
A|-x-x-x-x-4-4-6-6-7-7-9--9--11-11-11-11-11b---------------------------------|
E|-5-5-7-7-------------------------------------------------------------------|

(Rhythm)
e|---------------------------------------------------------------------------|
B|---------------------------------------------------------------------------|
G|-6-6-6-6-4-4-4-4-6-6-6-6-4-4-4-4-------------------------------------------|
D|-6-6-6-6-4-4-4-4-6-6-6-6-4-4-4-4---------x-x-x-x---------------------------|
A|-4-4-4-4-2-2-2-2-4-4-4-4-2-2-2-2---------x-x-x-x---------------------------|
E|-------------------------------------------x-x-x-x-------------------------|

(Chorus Part 1) (Lead) (Play Twice)
e|-0-0-0-0-0-0-0-0-0-0-0-0-0-0-0-0-------------------------------------------|
B|-4-4-4-4-0-0-0-0-2-2-9-7-2-2-9-7-------------------------------------------|
G|---------------------------------------------------------------------------|
D|---------------------------------------------------------------------------|
A|---------------------------------------------------------------------------|
E|---------------------------------------------------------------------------|

(Chorus Part 1) (Rhythm) (Play Twice)
e|---------------------------------------------------------------------------|
B|---------------------------------------------------------------------------|
G|-6----4----2----2----------------------------------------------------------|
D|-6----4----2----2----------------------------------------------------------|
A|-4----2----0----0----------------------------------------------------------|
E|---------------------------------------------------------------------------|

(Chorus Part 2) (Lead) (Play Once)
e|---------------------------------------------------------------------------|
B|--------------------------12-12-12-12-9-9-9-9-9-9-9-7-7-7-7-7-7------------|
G|-9-9-9-9-9-9-8-8-8-8-8-8---------------------------------------------------|
D|---------------------------------------------------------------------------|
A|---------------------------------------------------------------------------|
E|---------------------------------------------------------------------------|

e|---------------------------------------------------------------------------|
B|-5-5-5-5-5-4-4-4-4-5-5-5-5-4-4-4h5-4-2-2-2-2-2-2-2-2-2-2-2-2-2-2-2-2-------|
G|---------------------------------------------------------------------------|
D|---------------------------------------------------------------------------|
A|---------------------------------------------------------------------------|
E|---------------------------------------------------------------------------|

(Outro) (Rhythm)
e|---------------------------------------------------------------------------|
B|---------------------------------------------------------------------------|
G|-4----6----9----9----6----4----2-----2-------------------------------------|
D|-4----6----9----9----6----4----2-----2-------------------------------------|
A|-2----4----7----7----4----2----0-----0-------------------------------------|
E|---------------------------------------------------------------------------|

e|---------------------------------------------------------------------------|
B|---------------------------------------------------------------------------|
G|-6-6-6-6-4-4-4-4-6-6-6-6-4-4-4-4-------------------------------------------|
D|-6-6-6-6-4-4-4-4-6-6-6-6-4-4-4-4---------x-x-x-x---7-----------------------|
A|-4-4-4-4-2-2-2-2-4-4-4-4-2-2-2-2---------x-x-x-x---7-----------------------|
E|-------------------------------------------x-x-x-x---5---------------------|
comments
We did not receive enough feedback on this tab! Please rate:
print report bad tab
1 2 3 4 5
I want to post or [tab]
guest
You may want to rate the tab now too:
select rating
Please do not post tabs as comments. Select "correction" instead!