Oops, an error
Loading. Please wait.

Summers Stellar Gaze Bass Tab

version 1
version 1

Album

Whole song

396 views 1 this week
2 commentsread comments
1 2 3 4 5
please rate
add to favorites
launch autoscroll
font size
0
reset
guitar tuner
Autoscroll
slow
fast
+/-
esc
set tempo
stop
Help us to improve Ultimate-Guitar.com Take our survey!
×
Author
Tuning: Standard and Drop D


Silverstein - Summers Stellar Gaze (2000)

Tracks:
1. Waiting For Years
2. Wish I Could Forget You
3. Friends In Fall River
4. Summer's Stellar Gaze
5. My Consolation
6. Forever And A Day


Now, before any of you get mad
at me these aren't my tabs, I give
all the credit to RaiLeff. He
submited this album but it got
reproved or something, I asked
him if I could use his tabs and
he didn't mind, so all the credit
goes to RaiLeff. :)


1. Waiting Four Years

Tuning: EADG

Verse
"To make you stay.."
1.
G|-------------------------------------|
D|-------------------------------------|
A|-55555555-44444444/77777777-99999999-|--x3
E|-------------------------------------|

"I asked to see you.."
2.
G|------------------------------------|
D|------------------------------------|
A|-55555555-44444444------------------|
E|-------------------33333333-3333333-|

Chorus
"Everyday!!!"

3.
G|---------------------------------------------------------------------|
D|---------------------------------------------------------------------|
A|-5-5-55-4-444-444------------------2-2-22-0-000-000------------------|
E|------------------3-3-33-3-333-333------------------3-3-33-3-333-333-|

4.
G|------------------------------------------------------------------------|
D|------------------------------------------------------------------------|
A|-5-5-55-4-444-444------------------2-2-22-0-000-000---------------------|
E|------------------3-3-33-3-333-333------------------xx-3-xx-3-xx-3-xx-3-|

"And Im waiting four years..."
5.
G|---------------------------------------------------------------------|
D|---------------------------------------------------------------------|
A|-5-5-55-4-444-444------------------2-2-22-0-000-000------------------|
E|------------------3-3-33-3-333-333------------------3-3-33-3-333-333-|

6.
G|------------------------------------------------------------------------|
D|------------------------------------------------------------------------|
A|-5-5-55-4-444-444------------------2-2-22-0-000-000---------------------|
E|------------------3-3-33-3-333-333------------------xx-3-xx-3-xx-3-xx-3-|

Verse
"Life has passed me by..."
7.
G|-------------------------------------------------------------------------|
D|-------------------------------------------------------------------------|
A|-22222422-22222222-------------------------------------------------------|
E|-------------------33333333-33333333-22222222-22222222-00000000-00000000-|
x2__/

Pre-Chorus
"More then I'll ever have.."
8.
G|---------------------------------------------------------------------|
D|---------------------------------------------------------------------|
A|-2-2-242-2222-242----------------------------------------------------|--x2
E|------------------3-3-353-3333-353-2-2-232-2222-232-0-0-000-0000-000-|

"And Im waiting four years..."
9.
G|---------------------------------------------------------------------|
D|---------------------------------------------------------------------|
A|-5-5-55-4-444-444------------------2-2-22-0-000-000------------------|
E|------------------3-3-33-3-333-333------------------3-3-33-3-333-333-|

"Waiting all this time..."
10.
G|------------------------------------------------------------------------|
D|------------------------------------------------------------------------|
A|-5-5-55-4-444-444------------------2-2-22-0-000-000---------------------|
E|------------------3-3-33-3-333-333------------------xx-3-xx-3-xx-3-xx-3-|

Outro
11.
G|-----------------|
D|-----------------|
A|-5~--------------|
E|-----------------|

Bridge
"Can you see me?"
12.
G|----------------------------------|
D|----------------------------------|
A|-55x----55x----55x-44x-55x-44x----|
E|----------------------------------|

"Can you see me?"
13.
G|-------------------------------------|
D|-------------------------------------|
A|-55555555-44444444-55555555-44444444-|--x2
E|-------------------------------------|

"Everyday.."
14.
G|----------------------------------|
D|----------------------------------|
A|-x-x-555-444444-77777777-99999999-|--x4
E|----------------------------------|

"Everyday.."
16.
G|------------------------------------|
D|------------------------------------|
A|-x-x-x-555-444444-------------------|
E|------------------00000000-22222222-|

17.
G|-----------------|
D|-----------------|
A|-5~--------------|
E|-----------------|


_____________________________________________

2. Wish I Could Forget You

Tuning: EADG

Intro
1.
G|----------------|
D|----------------|
A|-3~--3~--2~--2~-|
E|----------------|

"I know they will miss!"
2.
G|-------------------------|
D|-------------------------|
A|-333333-333333-222222-2x-|--x4
E|-------------------------|

3.
G|---------------------------------|
D|---------------------------------|
A|-33333333-22222222---------------|--x4
E|---------------------------------|

Chorus

"Say its gold, say its fine..."
4.
G|-------------------------------------------|
D|------------------------------------2x-----|
A|-3333-2222-5555-2222-3333-2222-5555----222-|--x4
E|-------------------------------------------|

Outro
5.
G|---------------------------------------------------------|
D|---------------------------------------------------------|
A|-333333-222222-555555-222222-333333-222222-555555-777777-|--x2
E|---------------------------------------------------------|

6.
G|----------------------------------------------------------|
D|--------------------------------------------------2x------|
A|-333333-222222-555555-222222-333333-222222-555555----2222-|--x2
E|----------------------------------------------------------|

Chorus
"Say its gold, say its fine..."
7.
G|-------------------------------------------|
D|------------------------------------2x-----|
A|-3333-2222-5555-2222-3333-2222-5555----222-|--x2
E|-------------------------------------------|

8.
G|-----------------------------|
D|-----------------------------|
A|----------------------555555-|
E|-555555-555555-333333--------|

9.
G|--------------|
D|--------------|
A|--------------|
E|-5~-----------|

________________________________________________

3. Friends In Fallriver

Tuning: EADG

Intro
1.
G|------------------------------------------------|
D|------------------------------------------------|
A|-2~---------22222222-44444444-00000000-22222222-|
E|--------------------------------------Let's-Go!-|

Cont.
G|-------------------------------------|
D|-------------------------------------|
A|-22222222-44444444-00000000-22222222-|
E|-------------------------------------|

2.
G|---------------------------------|
D|---------------------------------|
A|-22x-00x-44x-00x-2-0-22x-00x-44x-|--x3
E|---------------------------------|

3.
G|---------------------------------|
D|---------------------------------|
A|-22x-00x-44x-00x-2-0-22x-00x-44~-|
E|---------------------------------|

Verse
"Your life..."
4.
G|-------------------------------------------------------------------------|
D|-------------------------------------------------------------------------|
A|-22222222-22222222-44444444-44444444-------------------00000000-00000000-|
E|-------------------------------------44444444-44444444-------------------|
x2__/

Chorus
"What did I do?"
5.
G|-------------------------------------------------------------------------|
D|-------------------------------------------------------------------------|
A|-22x-00x-44x-00x-2-0-22x-00x-44x---------22x-00x-44x-00x-2-0-22x-00x-44x-|
E|-------------------------------------------------------------------------|

6.
G|-------------------------------------------------------------------------|
D|-------------------------------------------------------------------------|
A|-22x-00x-44x-00x-2-0-22x-00x-44x---------22x-00x-44x-00x-2-0-22x-00x-44~-|
E|---------------------------------000-000---------------------------------|

Verse
"Im heading the wrong way home..."
7.
G|-------------------------------------------------------------------------|
D|-------------------------------------------------------------------------|
A|-22222222-00000000-44444444-22222222-22222222-00000000-44444444-22222222-|
E|-------------------------------------------------------------------------|
x2__/

Chorus
"What did I do?"
8.
G|-------------------------------------------------------------------------|
D|-------------------------------------------------------------------------|
A|-22x-00x-44x-00x-2-0-22x-00x-44x---------22x-00x-44x-00x-2-0-22x-00x-44x-|
E|-------------------------------------------------------------------------|

9.
G|-------------------------------------------------------------------------|
D|-------------------------------------------------------------------------|
A|-22x-00x-44x-00x-2-0-22x-00x-44x---------22x-00x-44x-00x-2-0-22x-00x-----|
E|---------------------------------000-000-----------------------------00~-|

Bridge
"I dont know where to begin..."
10.
G|-------------------------------------------------------------------------|
D|-------------------------------------------------------22222422-11111211-|
A|-44444444-44444444-------------------------------------------------------|
E|-------------------44444444-44444444-55544455-54445555-------------------|
x2___/

11.
G|-------------------------------------------------------------------------|
D|---------------111-22222222-22222222-------------------------------------|
A|-44444444-44444----------------------------------------------------------|
E|-------------------------------------55555555-55555555-44444444-44444444-|

12.
G|-------------------------------------------------------|
D|-------------------------------------------------------|
A|-44444444-44444444-------------------------------------|
E|-------------------44444444-44444444-55544455-54445555-|

Cont.
G|---------------------------|
D|-2~-------1~---------------|
A|------------------4~-------|
E|---------------------------|

__________________________________________

4. Summer's Stellar Gaze

Tuning: Drop D (DADG)

Intro
1.
G|--------------------------------|
D|--------------------------------|
A|-4~--------4~-5~-4~-5~-4~-5~-4~-|
D|--------------------------------|

Verse

2.
G|-----------------------------------------|
D|-----------------------------------------|
A|-445-445-445-445-445-4-------------------|--x3
D|-----------------------5~-4~-5~-4~-4h5p4-|


3.
G|---------------------------------|
D|---------------------------------|
A|-445-445-445-445-445-4-----------|
D|-----------------------5~-4~-0~--|

Chorus

4.
G|--------------------------------------------------|
D|--------------------------------------------------|
A|-------------------0~----------------------0~-----|
D|-5~-4~-0~----5~-4~-------5~-4~-0~----5~-4~--------|

5.
G|--------------------------------------------------|
D|--------------------------------------------------|
A|-------------------0~----------------------0~-----|
D|-5~-4~-0~----5~-4~-------555-444-0~--5~-4~--------|

Mute for a long time

"Summer Stellar Gaze..." 1:07
6.
G|-----------------------------------------------------------------------------|
D|-----------------------------------------------------------------------------|
A|-----------------------------------------------------------------------------|
D|-555-4-4555-4-45544-555-4-4555-4-45544-555-4-4555-4-45544-555-4-4555-4-45544-|


7.
G|---------------------------------------------------------------------|
D|---------------------------------------------------------------------|
A|---------------------------------------------------------------------|
D|-555-4-4555-4-45544-555-4-4555-4-45544-555-4-4555-4-45544-555-4-4-2~-|

Chorus

8.
G|--------------------------------------------------|
D|--------------------------------------------------|
A|-------------------0~----------------------0~-----|
D|-5~-4~-0~----5~-4~-------5~-4~-0~----5~-4~--------|

9.
G|--------------------------------------------------|
D|--------------------------------------------------|
A|-------------------0~------------------------0~---|
D|-5~-4~-0~----5~-4~-------555-444-0~--555-444------|

Verse

10.
G|-----------------------------------------|
D|-----------------------------------------|
A|-445-445-445-445-445-4-------------------|--x4
D|-----------------------5~-4~-5~-4~-4h5p4-|

11.
G|----------------------------------------------------------|
D|----------------------------------------------------------|
A|----------------------------------------------------------|
D|-555-4-4555-4-4h5p4-555-4-4555-4-4h5p4-555-4-4555-4-4h5p4-|

Cont.
G|--------------------|
D|--------------------|
A|--------------------|
D|-555-4-4555-4 4h5p4-|


Play 11 for a long time
And finish with

12.
G|---------------------|
D|---------------------|
A|---------------------|
D|-555-4x-2~-00x-00-0x-|

____________________________________________

5. My Consolation

Tuning: EADG

Intro
1.
G|------------------------------------------------------------|
D|-------2~--------------------2~----4~----6~----7~-----------|
A|------------------------------------------------------------|
E|-5~----------0~----5~------------------------------------5~-|

2.
G|------------|
D|------------|
A|-7~---7x----|
E|------------|

Verse
"You left me.."
3.


G|-------------------------------------------------|
D|---------------------------------4444-6----------|
A|-7-77777-77777-77777-77777-77777-----------------|
E|---------------------------------------44--------|

4.
G|-------------------------------------------------|
D|------------4444-6666------------4444-6-66-------|
A|-------------------------------------------------|
E|-5-55555-555----------5-55555-555----------------|

5.
G|-------------------------------------------------|
D|------------4444-6666------------4444-6----------|
A|-7-77777-777----------7-77777-777----------------|
E|----------------------------------------44-------|

6.
G|-------------------------------------------------|
D|------------4444-6666------------4444-6-66-------|
A|-------------------------------------------------|
E|-5-55555-555----------5-55555-555----------------|

7.
G|-------------------------------------------------|
D|------------4444-6666------------4444-6----------|
A|-7-77777-777----------7-77777-777----------------|
E|----------------------------------------44-------|

8.
G|-------------------------------------------------|
D|------------4444-6666------------4444-6-66-------|
A|-------------------------------------------------|
E|-5-55555-555----------5-55555-555----------------|

Pre-Chorus
9.
G|-----------------------------------------|
D|-----------------------------------------|
A|-44444444-22222222-7777777---------------|
E|---------------------------555-444-------|

10.
G|-----------------------------------------|
D|-----------------------------------------|
A|-44444444-22222222-----------------------|
E|-------------------5555-5555-5555-5555---|

Chorus
11.
G|---------------------------------------------------------------|
D|---------------------------------------------------------------|
A|-444-555-------444-555---------------444-555------4444-5555----|
E|---------555x----------555555-555555---------555x-----------5x-|

Verse
12.
G|-------------------------------------------------|
D|---------------------------------4444-6----------|
A|-7-77777-77777-77777-77777-77777-----------------|
E|---------------------------------------44--------|

13.
G|-------------------------------------------------|
D|------------4444-6666------------4444-6-66-------|
A|-------------------------------------------------|
E|-5-55555-555----------5-55555-555----------------|

14.
G|-------------------------------------------------|
D|------------4444-6666------------4444-6----------|
A|-7-77777-777----------7-77777-777----------------|
E|----------------------------------------44-------|

15.

G|-------------------------------------------------|
D|------------4444-6666------------4444-6-66-------|
A|-------------------------------------------------|
E|-5-55555-555----------5-55555-555----------------|

Pre-Chorus
16.
G|-----------------------------------------|
D|-----------------------------------------|
A|-44444444-22222222-7777777---------------|
E|---------------------------555-444-------|

17.
G|-----------------------------------------|
D|-----------------------------------------|
A|-44444444-22222222-----------------------|
E|-------------------5555-5555-5555-5555---|

18.
"I wont forget..."
G|---------------------------------------------------------|
D|---------------------------------------------------------|
A|---------------000000-222222-000000-000000---------------|--x4
E|-444444-444444-----------------------------444444-222222-|

Chorus
19.
G|--------------------------------------------------------------------------|
D|--------------------------------------------------------------------------|
A|-444-555-------444-555---------------444-555------4444-5555---------------|
E|---------555x----------555555-555555---------555x-----------555555-555555-|

20.
G|-------4~----2~----1~----|
D|-------------------------|
A|-0~----------------------|
E|-------------------------|


________________________________________________

6. Forever And A Day

Tuning: EADG

Intro.
1.
G|---------------------------------------------|
D|---------------------------------------------|
A|-0-000-0-00-2-222-2-22-0-000-0-00------------|--x2
E|----------------------------------3-333-3-33-|

Verse
"I thought we'de be.."
2.
G|----------------------------------------------|
D|------------------4-2-0-----------------------|
A|-0-000-0-00-2-222-------0-000-0-00------------|--x2
E|-----------------------------------3-333-3-33-|

Chorus

3.
G|-------------------------------------------------|
D|-------------------------------------------------|
A|-0000000x--2222222x--000000-000000---------------|--x3
E|-----------------------------------333333-333333-|

4.
G|--------------------------------------------------------|
D|---------4-2-0--------4-2-0-----------------------------|
A|-0000000-------222222-------000000-000000---------------|
E|------------------------------------------333333-333333-|

"Think..."
5.
G|---------------------------------------------|
D|---------------------------------------------|
A|-0-000-0-00-2-222-2-22-0-000-0-00------------|
E|----------------------------------3-333-3-33-|

6.
G|----------------------------------------------|
D|------------------4-2-0-----------------------|
A|-0-000-0-00-2-222-------0-000-0-00------------|
E|-----------------------------------3-333-3-33-|

7.
G|---------------------------------------------|
D|---------------------------------------------|
A|-0-000-0-00-2-222-2-22-0-000-0-00------------|
E|----------------------------------3-333-3-33-|

8.
G|----------------------------------------------|
D|------------------4-2-0-----------------------|
A|-0-000-0-00-2-222-------0-000-0-00------------|
E|-----------------------------------3-333-3-33-|

Chorus
9.
G|-------------------------------------------------|
D|-------------------------------------------------|
A|-0000000x--2222222x--000000-000000---------------|--x3
E|-----------------------------------333333-333333-|

10.
G|--------------------------------------------------------|
D|---------4-2-0--------4-2-0-----------------------------|
A|-0000000-------222222-------000000-000000---------------|
E|------------------------------------------333333-333333-|

11.
G|--------------------------|
D|--------------------------|
A|-0~------2~------0~-------|
E|-----------------------3~-|

12.
G|--------------------------------------|
D|-----------------------5~-5-7-5-4~-0~-|
A|-0~------2~------3~-------------------|--x2
E|--------------------------------------|

"Just how good I was.."
13.
G|---------------------------------------------------------|
D|---------------------------------------------------------|
A|-000000-000000-000000-000000-333333-333333-333333-333333-|--x2
E|---------------------------------------------------------|

"Together! Forever!!.."
14.
G|-------------------------------------------------|
D|-------------------------------------------------|
A|-000x-000x-000x-000x-333333-333333-333333-333333-|
E|-------------------------------------------------|

15.
G|---------------------------------------------------------|
D|---------------------------------------------------------|
A|-000000-000000-000000-000000-333333-333333-333333-333333-|
E|---------------------------------------------------------|

Here's where poem starts..
16.
G|-----------------------------------------------------------------------|
D|-----------------------------------------------------------------------|
A|-000000-000000-000000-000000-222222-222222-222222-2x----333333-333333--|
E|-----------------------------------------------------------------------|

17.
G|-------------------------------------------|
D|---------------555555-555555-444444-444444-|
A|-333333-333333-----------------------------|
E|-------------------------------------------|

Hope you like, please rate it and tell RaiLeff that he rocks lol!
Suggest correction
Give kudos to tab author, rate the tab!
1 2 3 4 5
comments
print report bad tab
2 comments total.
0 reply
RaiLeff 12,882 wrote on August 24 2007, 07:18 pm

Haha thats the way dude
Its perfect (Why's that?)
Hahah well UG loves you since they aproved your version and not
when I sent it :(

Haha well good luck on your life mate, keep on contact with ya
Cheers!!

0 reply
carrotcake 1,997 wrote on August 25 2007, 11:09 am

haha, thanks a lot no problem!
thanks for all the support and stuff! :)

guest
You may want to rate the tab now too:
select rating
Wanna post a correction for this tab? Suggest correction