Oops, an error
Loading. Please wait.

Summers Stellar Gaze Bass Tab

version 2
version 2

Whole song

116 views 1 this week
1 commentread comment
1 2 3 4 5
please rate
add to favorites
launch autoscroll
font size
0
reset
guitar tuner
Tab Pro tools
  • play this tab
  • loop segment
  • change instrument
  • show fretboard
  • metronome
×
Best way to learn
"Summers Stellar Gaze"
Autoscroll
slow
fast
+/-
esc
set tempo
stop
Contributor
Tuning
D A D G B E
++++++++++++++++++++++++++++++++++++++
| Silverstein- Summer's Stellar Gaze |
++++++++++++++++++++++++++++++++++++++

Tuning: Drop D (DADG)

Intro
1.
G|--------------------------------|
D|--------------------------------|
A|-4~--------4~-5~-4~-5~-4~-5~-4~-|
D|--------------------------------|

Verse

2.
G|-----------------------------------------|
D|-----------------------------------------|
A|-445-445-445-445-445-4-------------------|--x3
D|-----------------------5~-4~-5~-4~-4h5p4-|


3.
G|---------------------------------|
D|---------------------------------|
A|-445-445-445-445-445-4-----------|
D|-----------------------5~-4~-0~--|

Chorus

4.
G|--------------------------------------------------|
D|--------------------------------------------------|
A|-------------------0~----------------------0~-----|
D|-5~-4~-0~----5~-4~-------5~-4~-0~----5~-4~--------|

5.
G|--------------------------------------------------|
D|--------------------------------------------------|
A|-------------------0~----------------------0~-----|
D|-5~-4~-0~----5~-4~-------555-444-0~--5~-4~--------|

Mute for a long time

"Summer Stellar Gaze..." 1:07
6.
G|-----------------------------------------------------------------------------|
D|-----------------------------------------------------------------------------|
A|-----------------------------------------------------------------------------|
D|-555-4-4555-4-45544-555-4-4555-4-45544-555-4-4555-4-45544-555-4-4555-4-45544-|

7.
G|---------------------------------------------------------------------|
D|---------------------------------------------------------------------|
A|---------------------------------------------------------------------|
D|-555-4-4555-4-45544-555-4-4555-4-45544-555-4-4555-4-45544-555-4-4-2~-|

Chorus

8.
G|--------------------------------------------------|
D|--------------------------------------------------|
A|-------------------0~----------------------0~-----|
D|-5~-4~-0~----5~-4~-------5~-4~-0~----5~-4~--------|

9.
G|--------------------------------------------------|
D|--------------------------------------------------|
A|-------------------0~------------------------0~---|
D|-5~-4~-0~----5~-4~-------555-444-0~--555-444------|

Verse

10.
G|-----------------------------------------|
D|-----------------------------------------|
A|-445-445-445-445-445-4-------------------|--x4
D|-----------------------5~-4~-5~-4~-4h5p4-|

11.
G|-----------------------------------------------------------------------------|
D|-----------------------------------------------------------------------------|
A|-----------------------------------------------------------------------------|
D|-555-4-4555-4-4h5p4-555-4-4555-4-4h5p4-555-4-4555-4-4h5p4-555-4-4555-4-4h5p4-|

Play 11 for a long time
And finish with

12.
G|---------------------|
D|---------------------|
A|---------------------|
D|-555-4x-2~-00x-00-0x-|

Lyrics

As time passes us by and hurries us with pride, we'll have the past for the rest of our lives
Don't lose touch with reality, compensate for life's stupidity
I wait for it. You know that it's true. You cannot lose. 
A summer can't be forgotten from the words that you speak.
Summer's stellar gaze. I wait for it. You know that it's true.
You cannot lose. You're one of the few. Summer's Stellar Gaze

+++++++++++++++++++++++++++++++++
| RaiLeff                       |
| Underground__Dora@Hotmail.Com |
+++++++++++++++++++++++++++++++++
comments
We did not receive enough feedback on this tab! Please rate:
print report bad tab
1 2 3 4 5
1 comment total.
0 reply
carrotcake wrote on June 6 2007, 09:48 pm

my version's way off, yours is better
the hammer-on pull-off part at 11's kind of confusing though, 5*

I want to post or [tab]
guest
You may want to rate the tab now too:
select rating
Please do not post tabs as comments. Select "correction" instead!