Oops, an error
Loading. Please wait.

Texas Mickey Tab

version 2
version 2

Whole song

Interactive

918 views 1 this week
no commentswrite comment
1 2 3 4 5
excellent!
x 4
add to favorites
launch autoscroll
font size
0
reset
how to read this tab
guitar tuner
Tab Pro tools
  • play this tab
  • loop segment
  • change instrument
  • show fretboard
  • metronome
×
Best way to learn
"Texas Mickey"
Autoscroll
slow
fast
+/-
esc
set tempo
stop
Contributor
Difficulty
Tuning
intermediate
C# G# C# F# A# D#
Tabbed by: Joshua Garcia (joshuag523@aol.com)

Tabs for the song: Texas Mickey by Silverstein
Please rate and let me know if you have any corrections. Thank you.


**NOTE - This was taken from my full album tab, which can be found here: 
http://tabs.ultimate-guitar.com/s/silverstein/rescue_album_tab.htm **


Tuning: Drop C# (C# G# C# F# A# D#)



Intro
Guitar 1:
D#||----------------------------------------|
A#||----------------------------------------|
F#||----------------------------------------|
C#||---------------------------9-9-9-10-10--| x2
G#||--------7-7-7-8-8-10-10-10--------------|
C#||--7-7-7---------------------------------|


Guitar 1/2:
D#||----------------------------------------|
A#||----------------------------------------|
F#||----------------------------------------|
C#||---------------------------9-9-9-10-10--| x2
G#||--------7-7-7-8-8-10-10-10--------------|
C#||--7-7-7---------------------------------|



Verse
Guitar 1/2:
D#||--------------------------------------------|
A#||--------------------------------------------|
F#||--------------------------------------------|
C#||--9999----10101010----333-5-55-555-555-555--| x2
G#||--7777-77-7-7-7-7--77-333-5-55-555-555-555--|
C#||--7777-77-7-7-7-7--77-333-5-55-555-555-555--|
           ..          ..


D#||----------------------------------------------------------------|
A#||----------------------------------------------------------------|
F#||----------------------------------------------------------------|
C#||--7-7-777-5--55--5555--7-7-777-3--33--3333-3-3-333-5--55--5555--|
G#||--7-7-777-5--55--5555--7-7-777-3--33--3333-3-3-333-5--55--5555--|
C#||--7-7-777-5--55--5555--7-7-777-3--33--3333-3-3-333-5--55--5555--|


D#||----------------------------------------|
A#||----------------------------------------|
F#||----------------------------------------|
C#||---------------------------9-9-9-10-10--|
G#||--------7-7-7-8-8-10-10-10--------------|
C#||--7-7-7---------------------------------|


D#||------------------------------|
A#||------------------------------|
F#||------------------------------|
C#||--10-10-10-10-10-10-10-10-10--|
G#||--12-12-12-12-12-12-12-12-12--|
C#||------------------------------|



Chorus
Guitar 1\2:
D#||-----------------------------------------------------------------------------------|
A#||-----------------------------------------------------------------------------------|
F#||--5-55-5555-55-555-9--9-9--9-9-9-9--9-9--9-9-9--4-44-4444-44-444-0-00-0000-00-000--|
C#||--7-77-7777-77-777-10-1010-10101010-1010-101010-5-55-5555-55-555-2-22-2222-22-222--|
G#||--7-77-7777-77-777-10-1010-10101010-1010-101010-5-55-5555-55-555-2-22-2222-22-222--|
C#||--7-77-7777-77-777-10-1010-10101010-1010-101010-5-55-5555-55-555-2-22-2222-22-222--|


D#||-------------------------------------------------------------------------------------|
A#||-------------------------------------------------------------------------------------|
F#||--5-55-5555-55-555-9--9-9--9-9-9-9--9-9--9-9-9--4-44-4444-44-444-2-22-222-4-44-4444--|
C#||--7-77-7777-77-777-10-1010-10101010-1010-101010-5-55-5555-55-555-3-33-333-5-55-5555--|
G#||--7-77-7777-77-777-10-1010-10101010-1010-101010-5-55-5555-55-555-3-33-333-5-55-5555--|
C#||--7-77-7777-77-777-10-1010-10101010-1010-101010-5-55-5555-55-555-3-33-333-5-55-5555--|


D#||----------------------------------------|
A#||----------------------------------------|
F#||----------------------------------------|
C#||---------------------------9-9-9-10-10--| x2
G#||--------7-7-7-8-8-10-10-10--------------|
C#||--7-7-7---------------------------------|



Verse
Guitar 1/2:
D#||--------------------------------------------|
A#||--------------------------------------------|
F#||--------------------------------------------|
C#||--9999----10101010----333-5-55-555-555-555--| x2
G#||--7777-77-7-7-7-7--77-333-5-55-555-555-555--|
C#||--7777-77-7-7-7-7--77-333-5-55-555-555-555--|
           ..          ..


D#||----------------------------------------------------------------|
A#||----------------------------------------------------------------|
F#||----------------------------------------------------------------|
C#||--7-7-777-5--55--5555--7-7-777-3--33--3333-3-3-333-5--55--5555--|
G#||--7-7-777-5--55--5555--7-7-777-3--33--3333-3-3-333-5--55--5555--|
C#||--7-7-777-5--55--5555--7-7-777-3--33--3333-3-3-333-5--55--5555--|


D#||----------------------------------------|
A#||----------------------------------------|
F#||----------------------------------------|
C#||---------------------------9-9-9-10-10--|
G#||--------7-7-7-8-8-10-10-10--------------|
C#||--7-7-7---------------------------------|


D#||------------------------------|
A#||------------------------------|
F#||------------------------------|
C#||--10-10-10-10-10-10-10-10-10--|
G#||--12-12-12-12-12-12-12-12-12--|
C#||------------------------------|


D#||-------|
A#||-------|
F#||-------|
C#||--13\--|
G#||--13\--|
C#||--13\--|



Chorus
Guitar 1\2:
D#||-----------------------------------------------------------------------------------|
A#||-----------------------------------------------------------------------------------|
F#||--5-55-5555-55-555-9--9-9--9-9-9-9--9-9--9-9-9--4-44-4444-44-444-0-00-0000-00-000--|
C#||--7-77-7777-77-777-10-1010-10101010-1010-101010-5-55-5555-55-555-2-22-2222-22-222--|
G#||--7-77-7777-77-777-10-1010-10101010-1010-101010-5-55-5555-55-555-2-22-2222-22-222--|
C#||--7-77-7777-77-777-10-1010-10101010-1010-101010-5-55-5555-55-555-2-22-2222-22-222--|


D#||-----------------------------------------------------------------------------------|
A#||-----------------------------------------------------------------------------------|
F#||--5-55-5555-55-555-9--9-9--9-9-9-9--9-9--9-9-9--4-44-4444-44-444-2-22-2222-22-222--|
C#||--7-77-7777-77-777-10-1010-10101010-1010-101010-5-55-5555-55-555-3-33-3333-33-333--|
G#||--7-77-7777-77-777-10-1010-10101010-1010-101010-5-55-5555-55-555-3-33-3333-33-333--|
C#||--7-77-7777-77-777-10-1010-10101010-1010-101010-5-55-5555-55-555-3-33-3333-33-333--|


D#||---------------------|
A#||---------------------|
F#||--2-22-222-4-44-444--|
C#||--3-33-333-5-55-555--|
G#||--3-33-333-5-55-555--|
C#||--3-33-333-5-55-555--|



Bridge
Guitar 1:
D#||-----------------------------------|
A#||-----------------------------------|
F#||-----------------------------------|
C#||--------9~---------7~---------5~---|
G#||-----7----------5----------3-------|
C#||--7----------5----------3----------|


Guitar 1/2:
D#||------------------------------|
A#||------------------------------|
F#||------------------------------|
C#||--9-9-9~----7-7-7~----5-5-5~--| x2
G#||--7-7-7~----5-5-5~----3-3-3~--|
C#||--7-7-7~----5-5-5~----3-3-3~--|


Guitar 1:
D#||------------------------|
A#||------------------------|
F#||--5---4------5---4------|
C#||----------5----------5--|
G#||------------------------|
C#||------------------------|


Guitar 2:
D#||---------------------------|
A#||---------------------------|
F#||---------------------------|
C#||---------------------13\---|
G#||--3-3-3-3-3-3-3-3-3--13\---|
C#||--3-3-3-3-3-3-3-3-3--13\---|
      . . . . . . . . .



Bridge / Outro
Guitar 1:
D#||-----------------------------------------------------------|
A#||-----------------------------------------------------------|
F#||--9--7--9~----/9--7--5-7--5--4-5--4--5~----5--4--5--5/7~---|
C#||--x--x--x-----/x--x--x-x--x--x-x--x--x-----x--x--x--x/x----|
G#||--7--5--7~----/7--5--3-5--3--2-3--2--3~----3--2--3--3/5~---| x3
C#||-----------------------------------------------------------|


D#||---------------------------------------|
A#||---------------------------------------|
F#||--9--7--9~----/9--7--5-7--5---/7--5~---|
C#||--x--x--x-----/x--x--x-x--x---/x--x----|
G#||--7--5--7~----/7--5--3-5--3---/5--3~---|
C#||---------------------------------------|


Guitar 2:
D#||----------------------------------------|
A#||----------------------------------------|
F#||----------------------------------------|
C#||--9-9-9~----7-7-7~----5-5-5~----5-5-5~--| x3
G#||--7-7-7~----5-5-5~----3-3-3~----3-3-3~--|
C#||--7-7-7~----5-5-5~----3-3-3~----3-3-3~--|


D#||----------------------------|
A#||----------------------------|
F#||----------------------------|
C#||--9-9-9~----7-7-7~-----5~---|
G#||--7-7-7~----5-5-5~-----3~---|
C#||--7-7-7~----5-5-5~-----3~---|




Tablature Legend
----------------
 h   hammer-on
 p   pull-off
 b   bend
 pb  pre-bend
 r   release bend
 ~   hold / vibrato
 .   palm mute
 /   slide up
 \   slide down
 *   pinch harmonic
 '   natural harmonic
 x   mute note
 T   tap
comments
print report bad tab
I want to post or [tab]
guest
You may want to rate the tab now too:
select rating
Please do not post tabs as comments. Select "correction" instead!