Oops, an error
Loading. Please wait.

The End bass

version 1
version 1

Whole song

Interactive

848 views 1 this week
no commentswrite comment
1 2 3 4 5
3 more votes to show rating
add to favorites
×
Save as Personal and add changes to this tab that will be seen only by you. Learn more ›
×
You can save this tab as Personal to edit and correct it or add notes. All changes will be seen only by you. Learn more »
launch autoscroll
font size
0
reset
guitar tuner
edit
Autoscroll
slow
fast
+/-
esc
set tempo
stop
Author
++++++++++++++++++++++++
| Silverstein- The End |
++++++++++++++++++++++++


"You promised me the moon and stars..."


Tuning: EADG



2:01
Chorus
"And I knew you could never love me..."
1.
G|---------------------------------------------------------------|
D|------------------------------------------------------2~-1~----|
A|------------------------------------------------------------2~-|
E|-4-44444x--------7-77777x--------0-00000~-00000~-0000----------|

"I had so much sorrow inside..."
2.
G|---------------------------------------------------------------|
D|------------------------------------------------------4~-2~----|
A|------------------------------------------------------------2~-|
E|-4-44444x--------7-77777x--------0-00000~-00000~-0000----------|

"But can I still keep..."
3.
G|---------------------------------------------------------------|
D|------------------------------------------------------1~-2~-1~-|
A|---------------------------------------------------------------|
E|-4-44444x--------7-77777x--------0-00000~-00000~-0000----------|

"A place in your heart..."
4.
G|---------------------------------------------------------------|
D|---------------------------------------------------------------|
A|---------------------------------------------------------------|
E|-4-44444x--------7-77777x--------0-00000~-00000~---------------|

Bridge
"I didnt want to save you..."
5.
G|-------------------------------------------------|
D|-------------------------------------------------|
A|-------------------------------------------------|--x2
E|-4~-4~-4~-4~-2~-2~-2~-2~-0~-0~-0~-0~-0~-0~-0~-0~-|

Chorus
"And I knew you could never love me..."
6.
G|---------------------------------------------------------------|
D|------------------------------------------------------2~-1~----|
A|------------------------------------------------------------2~-|
E|-4-44444x--------7-77777x--------0-00000~-00000~-0000----------|

"I had so much sorrow inside..."
7.
G|---------------------------------------------------------------|
D|------------------------------------------------------4~-2~----|
A|------------------------------------------------------------2~-|
E|-4-44444x--------7-77777x--------0-00000~-00000~-0000----------|

"But Ill ask you this..."
8.
G|---------------------------------------------------------------|
D|------------------------------------------------------1~-2~-1~-|
A|---------------------------------------------------------------|
E|-4-44444x--------7-77777x--------0-00000~-00000~-0000----------|

"Will you still miss..."
9.
G|---------------------------------------------------------------------------------|
D|---------------------------------------------------------------------------------|
A|---------------------------------------------------------------------------------|
E|-4-44444x--------7-77777x--------0-0-0-0-0-0-0-0-0-0-0-0-0-0-0-0-0-0-0-0-0-0-0-0-|

Outro
"Planes fill the sky..."  --x2
10.
G|------------------------------------------------------------------------------------------------|
D|------------------------------------------------------------------------------------------------|
A|-4-44444-444-4-44444-444-2-22222-222-2-22222x----0-00000-000-0-00000-000------------------------|
E|-------------------------------------------------------------------------0-00000-000-0-00000-000|

"Woah..."     for a million times
11.
G|------------------------------------------------------------------------------------------------|
D|---------------------21-------------------------------------------------------------------------|
A|-4-44444-444-4-44444---4-2-22222-222-2-22222x----0-00000-000-0-00000-000------------------------|
E|-------------------------------------------------------------------------0-00000-000-0-00000-000|

5:44
12.
G|------------------------------------------------------------------------------------------------|
D|---------------------21-------------------------------------------------------------------------|
A|-4-44444-444-4-44444---4-2-22222-222-2-22222x----0-00000-000-0-00000-000-0-00000-000-0-00000-000|
E|------------------------------------------------------------------------------------------------|

13. 
G|------------------| 
D|------------------|  
A|-4~---------------|
E|------------------|

ends on C#, you can play it one octave low if you want
but you're gonna have to tune your bass on Drop C#


Please rate thanks!!


Lyrics:

The first time we met
Your face became etched
In my mind

You were the sun
I was the one
Who worshiped you.
My hands were your guns
Your eyes were my muse.

And I knew you could never love me
I had so much sorrow inside
You could never reach
But can I still keep
A place in your heart?

You broke my heart
You promised me the moon and stars
I fell for your dreams. I fell for your lies
There was no other way 
You know I tried

There is something
I want you to know
I think you know exactly what it is
I didn't want to save you
I didn't want to save you
I set our house on fire
To watch it burn
But I couldn't just leave you there

And I knew you could never love me
I had so much sorrow inside
You could never reach
But I'll ask you this

Will you still miss me?
(Yes I'll miss you)
Do you love me?
(Yes I love you)

Planes fill the sky
We'll both die tonight
We'll both die tonight
Hands from the sky
Swat us away like flies
As we follow the light

We'll both die tonight

This union, a battle fought and lost
This union was not about the cause
This union was never about love 



+++++++++++++++++++++++++++++++++
| Raileff                       |
| Underground__Dora@Hotmail.Com |
+++++++++++++++++++++++++++++++++

            
            
Suggest correction
Creating personal tab
Creating personal tab
You can edit any tab online and save it as your Personal.

You can edit, replace or remove any tab part or add personal notes – all changes will be seen only by you.

Personal tabs can be accessed anytime from any device, even offline.
Learn more »
Give kudos to tab author, rate the tab!
1 2 3 4 5
comments
print report bad tab
guest
You may want to rate the tab now too:
select rating
Wanna post a correction for this tab? Suggest correction